Manic Street Preachers - Strip It Down Chords & Tabs

 

Strip It Down Chords & Tabs

Manic Street Preachers Chords & Tabs

Version: 1 Type: Chords 0 ratings
1 star 2 stars 3 stars 4 stars 5 stars
comments

Strip It Down Chords

strip it down
manic street preachers

e-----------------------
b-7-7-----5-5-----------
g-7-7-6-6-5-5-4-4-------
d-7-7-7-7-5-5-5-5-------
a-5-5-7-7-3-3-5-5------- 
e-----5-5-----3-3------- 

e-3-----3-----3-0-0-3-0-0-----------------5-0-5-0---
b-2-2-2-2-2-2-3-0-0-3-0-0-1-0-0-1-0-0-1-0-5-0-5-0---
g-3-3-3-3-3-3-3-0-0-3-0-0-0-0-0-0-0-0-0-0-----------
d-------------------------2-0-0-2-0-0-2-0-----------
a---------------------------------------------------
e---------------------------------------------------
[ Tab from: http://www.guitartabs.cc/tabs/m/manic_street_preachers/strip_it_down_crd.html ]
e------------------------------------------------------------------------------  
b-7-x-x-7-x-x---------------------------5-x-x-5-x-x----------------------------
g-7-x-x-7-x-x---6-x-x-6-x-x-------------5-x-x-5-x-x-------------x-x-6-6-6-6----
d-7-x-x-7-x-x---7-x-x-7-x-x-------------5-x-x-5-x-x-------------x-x-5-5-5-5----
a-5-x-x-5-x-x---7-x-x-7-x-x-------------3-x-x-3-x-x-------------x-x-5-5-5-5----
e---------------5-x-x-5-x-x-------------------------------------x-x-3-3-3-3----
  ain't no fun  at the government hall  sucked back injustice   sits nicely next to smiles
  outside life  brings down genocide    and consumer self-hate  leads to designer bullshit

e-----------
b-7-7-7-7---
g-7-7-7-7---
d-7-7-7-7---
a-5-5-5-5---
e-----------
  success and love dictate while skin touches fashion
  you can launch sweetly and say nice things

e-----------
b-----------
g-4-6-4-6---
d-5-7-5-7---
a-5-7-5-7---
e-3-5-3-5---

e-------------
g-7-3-6-3-0---
b-7-4-5-4-2---
d-7-4-5-4-2---
a-5-2-3-2-0---
e-------------
  strip it down

e-----------------
g-----------------
b-----------------
d-7-7-5-5-4-4-4---
a-5-5-3-3-2-0-2---
e-----------------

e---------------------
b----------------7----
g----------------7----
d-7-7-5-5-4-2-4--7----
a-5-5-3-3-2-0-2--5----
e---------------------
		ain't no culture sleeping in here

ego_loaded_and_swallowed@hotmail.com
jack
Comments