Manic Street Preachers - Solitude Sometimes Is Chords & Tabs

 

Solitude Sometimes Is Chords & Tabs

Manic Street Preachers Chords & Tabs

Version: 1 Type: Tab 0 ratings
1 star 2 stars 3 stars 4 stars 5 stars
comments

Solitude Sometimes Is Tab

   
SOLITUDE SOMETIMES IS (Isle Of Wight Festival live debut) 
Tabbed by Matthew Neale 


Intro/Verse 

PIANO 
e------------------------------------------------------------------------------------------------------------------------ 
B------5------------5-------------5-------------5-------------5-------------5--------------5--------------5-------- 
G---------6------------6-------------6-------------6-------------6-------------6--------------6--------------6----- 
D------------7------------7-------------7-------------7-------------7-------------7--------------7--------------7-- 
A--0-------------0------------4-------------4-------------5-------------5-------------------------------------------- 
D------------------------------------------------------------------------------------------4--------------4------------- 

GUITAR (Drop D tuning) 
e-------------------------------------------------------------------------------------------------------------------------------- 
B-------------------------------------------------------------------------------------------------------------------------------- 
G--6--6--6--6--6--6--6--6----6--6--6--6--6--6--6--6----6--6--6--6--6--6--6--6----6--6--6--6--6--6--6--6-- 
D--7--7--7--7--7--7--7--7----7--7--7--7--7--7--7--7----7--7--7--7--7--7--7--7----7--7--7--7--7--7--7--7-- 
A--0--0--0--0--0--0--0--0----4--4--4--4--4--4--4--4----5--5--5--5--5--5--5--5----x--x---x--x--x--x---x--x-- 
D--------------------------------------------------------------------------------------------------4--4--4--4--4--4--4--4-- 



Bridge 
[ Tab from: http://www.guitartabs.cc/tabs/m/manic_street_preachers/solitude_sometimes_is_tab.html ]
   D/F#        D/G#    A                              A/C#                 A/E 
e------------------------------------------------------------------------------------------------------------------------ 
B--7--7--7--7----7--------5----5--5--5--5--5--5------5--5--5--5--5--5----5--5--5--5--5--5-------------- 
G--7--7--7--7----7--------6----6--6--6--6--6--6------6--6--6--6--6--6----6--6--6--6--6--6-------------- 
D--7--7--7--7----7--------7----7--7--7--7--7--7------7--7--7--7--7--7----7--7--7--7--7--7-------------- 
A--x--x--x---x----x--------0----0--0--0--0--0--0------4--4--4--4--4--4----7--7--7--7--7--7---4--5--7-- 
D--4--4--4--4----6--------7----7--7--7--7--7--7----------------------------------------------------------------- 



Chorus 

F#m 
e------ 
B------ 
G--2-- 
D--4-- 
A--4-- 
D--4--   Solitude... 

E/G# 
e------ 
B------ 
G--4-- 
D--6-- 
A--7-- 
D--6--   ...sometimes... 


...is. 
e------------------------------------------------------------------------------------------------------------------------------------- 
B------------------------------------------------------------------------------------------------------------------------------------- 
G--6--6--6--6--6--6--6--6----6--6--6--6--6--6--6--6----6--6--6--6--6--6--6--6----6--6--6--6---------------------- 
D--7--7--7--7--7--7--7--7----7--7--7--7--7--7--7--7----7--7--7--7--7--7--7--7----7--7--7--7---------------------- 
A--0--0--0--0--0--0--0--0----4--4--4--4--4--4--4--4----5--5--5--5--5--5--5--5----x--x---x--x---------0--2b3r2-- 
D--------------------------------------------------------------------------------------------------4--4--4--4---2h4--------------- 


Repeat verse 
Repeat chorus 



any corrections/additions, especially regarding correct chord names, would be welcomed: 

toobrokentobelong@hotmail.com 

Comments