Manic Street Preachers - P C P Chords & Tabs

 

P C P Chords & Tabs

Manic Street Preachers Chords & Tabs

Version: 1 Type: Bass Tab 0 ratings
1 star 2 stars 3 stars 4 stars 5 stars
comments

P C P Bass Tab

   
Title: P.C.P.
Artist: Manic Street Preachers
Album: The Holy Bible
Tabbed: Bugman (bugman184@hotmail.com)


Intro:

G|--------------------------------|--------------------------------|
D|--------------7-7-7-7-7-7-7-7-7-|--------------------------------|
A|5-5-5-5-5-5-5-------------------|5-5-5-5-5-5-5-3-3-3-3-3-3-3-3-3-|
E|--------------------------------|--------------------------------|

                                                          (Speed Up)
G|--------------------------------|--------------------------------|
D|--------------7-7-7-7-7-7-7-7-7-|--------------------------------|
A|5-5-5-5-5-5-5-------------------|5-5-5-5-5-5-5-3-3-3-3-3-3-3-3-0-|
E|--------------------------------|--------------------------------|


Verse:

G|--------------------------------|--------------------------------|
D|0---0-0-0-0-0-0---0-0-0-0-0-0-0-|--------------------------------|
A|--------------------------------|1---1-1-1-1-1-1---1-1-1-1-1-1-1-|
E|--------------------------------|--------------------------------|


G|--------------------------------|--------------------------------|
D|--------------------------------|--------------------------------|
A|2---2-2-2-2-2-2---2-2-2-2-2-2-2-|--------------------------------|
E|--------------------------------|3---3-3-3-3-3-3---3-3-3-3-3-3-3-|


[ Tab from: http://www.guitartabs.cc/tabs/m/manic_street_preachers/p_c_p_btab.html ]
Bridge:
                                                           h
G|--------------------------------|--------------------------------|
D|--------------------------------|--------------------------------|
A|--------------------------------|--------------------------------|
E|0-----0-0---0---0-----0-0---0---|3-----3-3---3---3-----0-3---3---|


G|--------------------------------|--------------------------------|
D|--------------------------------|--------------------------------|
A|--------------------------------|--------------------------------|
E|0---0-0-0-3-2-0---0-0---0-0-0---|3---3-3-3-3-3-3---3-3-3-3-3-3-3-|


G|--------------------------------|--------------------------------|
D|--------------------------------|--------------------------------|
A|--------------------------------|--------------------------------|
E|5-5-5---5-5-5---5-5-5---5-5-5-/-|5-5\----------------------------|


Chorus:

G|--------------------------------|--------------------------------|
D|--------------------------------|--------------------------------|
A|------3---3-3---3-3-3---3-3-3---|------3---3-3---3-3-3---3-3-3---|
E|1-1-----------------------------|1-1-----------------------------|
                                                              (x 2)

G|--------------------------------|--------------------------------|
D|--------------------------------|--------------------------------|
A|------3---3-----3-3-----3-3-----|------3---3-----3-3-----3-3-----|
E|1-1---------5-3-----5-3-----5-3-|1-1---------5-3-----5-3-----5-3-|

                                  (Let Ring)
G|--------------------------------|--------------------------------|
D|--------------------------------|--------------------------------|
A|2-2-2-2-2-2-2-2-2-2-2-2-2-2-2-2/|7-------------------------------|
E|--------------------------------|--------------------------------|


    That's it. It is hard to hear the bass from the Manic's songs, but
this is pretty much as it sounds.
Comments