Manic Street Preachers - My Little Empire Chords & Tabs

 

My Little Empire Chords & Tabs

Manic Street Preachers Chords & Tabs

Version: 2 Type: Tab 0 ratings
1 star 2 stars 3 stars 4 stars 5 stars
comments

My Little Empire Tab

E-------------------------------|----------------------------------------------
B------------1------------------|----------------------------------------------
G--------------2---0------------|------------3-2-------------------------------
D---0-2-3-0----------3---2-0----|--2-3---0--------5--3----5br7-(or-5/7\5)--3---
A-0--------------------------3--|---------------------------------------------1
E-------------------------------|----------------------------------------------


E-----------------------3-----3------------------------------------------------
B------------------------------------------------------------------------------
G-2-3---5-3-2--------5-----5---------------------------------------------------
D---------------0--------------------------------------------------------------
A------------------------------------------------------------------------------
E------------------------------------------------------------------------------
[ Tab from: http://www.guitartabs.cc/tabs/m/manic_street_preachers/my_little_empire_tab_ver_2.html ]
Comments