Manic Street Preachers - My Little Empire Chords & Tabs

 

My Little Empire Chords & Tabs

Manic Street Preachers Chords & Tabs

Version: 1 Type: Tab 0 ratings
1 star 2 stars 3 stars 4 stars 5 stars
comments

My Little Empire Tab

artist: manic street preachers
song: my little empire
album: this is my truth tell me yours

I'm just going to transcribe the intro which is the part everybody always gets wrong,  this is the right way
to play this song.

----------------------------------------------------------------------------------
----------------------------------------------------------------------------------
-------------5/2--------------------------3/2----------------------------------
----0-2-3---------5/3------------2-3------------5/3---5^7^5---3-----------
-0-------------------------7/5/3-----------------------------------------------
----------------------------------------------------------------------------------
[ Tab from: http://www.guitartabs.cc/tabs/m/manic_street_preachers/my_little_empire_tab.html ]
----------------------------------------------------------------------------------
-------------------------------------8---------8---------------------------------
-----2--3---5/3/2--------------------------------------------------------------
-------------------------------10-------10--------------------------------------
-1---------------------5\8-------------------------------------------------------
-----------------------------------------------------------------------------------

-----------------------------------------------------------------------------------
-----------------------------------------------------------------------------------
----------------5/2----------------------------2-3/2---------------------------
---0--2--3----------5/3------------------2-----------5/3-----5^7^5-------
-----------------------------7/5/3/5/3-----------------------------------------
-----------------------------------------------------------------------------------

----------------------------------------------------------------------------------
---------------------------------------------------8--------8--------------------
------2--3---5^7^5---3--2--------------------------------------------------
---------------------------------------------10------10------------------------
--1-------------------------------------8---------------------------------------
----------------------------------------------------------------------------------

the acoustic bass and cello play  D, C, Bb, F on the verse and Bb, E, A, G on the chorus
the rest of the lead guitar can just be improvised, but stay clear of any bluesy shit
Comments