Manic Street Preachers - Loves Sweet Exile Chords & Tabs

 

Loves Sweet Exile Chords & Tabs

Manic Street Preachers Chords & Tabs

Version: 1 Type: Tab 0 ratings
1 star 2 stars 3 stars 4 stars 5 stars
comments

Loves Sweet Exile Tab

   
tuning low to high - e,a,d,g,b,e

intro/all verses - palm muted
|-----------------------------------------------------------------|
|-----------------------------------------------------------------|
|-7-7-7-7-7-7-7-7-7-7-7-7-7-7-7-7-----------------5-5-5-5-5-5-5-5-|
|-7-7-7-7-7-7-7-7-7-7-7-7-7-7-7-7-5-5-5-5-5-5-5-5-5-5-5-5-5-5-5-5-|
|-5-5-5-5-5-5-5-5-5-5-5-5-5-5-5-5-5-5-5-5-5-5-5-5-3-3-3-3-3-3-3-3-|
|---------------------------------3-3-3-3-3-3-3-3-----------------|

chorus
|-------------------------------------------------|
|-------------------------------------------------|
|------------------2-----------------------2---5--|
|------2-----------2-----------2-----------2---5--|
|------2-----------0-----------2-----------0---3--|
|-0-3--0------0-3---------0-3--0------0-3---------|

solo
|---------------------------------------------------------------------------|
|--------------------------------------------14-------14-------14----14(15)-|
|-14(16)14-12h14p12h14p12h1412----------------------------------------------|
|-----------------------------12-14---/12-14----12-14----12-14----12--------|
|---------------------------------------------------------------------------|
|---------------------------------------------------------------------------|

|-----------------------------------------------------|
|-12(14)----------------------------------------------|
|--------12(14)---14(16)14-12h14p12h14p12h1412--------|
|----------------------------------------------12-14--|
|-----------------------------------------------------|
|-----------------------------------------------------|
[ Tab from: http://www.guitartabs.cc/tabs/m/manic_street_preachers/loves_sweet_exile_tab.html ]
|--------------------------------------------------12----12----12----12----|
|--------14-12----14-12----14-12----14-12----12(13)--(13)--(13)--(13)------|
|--------------14-------14-------14-------14-------------------------------|
|-/12-14-------------------------------------------------------------------|
|--------------------------------------------------------------------------|
|--------------------------------------------------------------------------|

|-----12----12----12-------------------------------------------------------|
|-(13)--(13)--(13)--(13)14-----------------------------------12------------|
|-------------------------------------------------------12h14--------------|
|----------------------------------------12h14-----12h14-------12-14-------|
|-----------------------------------12h14-----12h14------------------------|
|------------------------------12h14---------------------------------------|

|---------------------------15-15(17)15---17-17-17-19-15-15-15-17-14-14-14-|
|---------------------12h14------------------------------------------------|
|-----------12h14----------------------------------------------------------|
|------12h14-----12h14-----------------------------------------------------|
|-12h14--------------------------------------------------------------------|
|--------------------------------------------------------------------------|

|-15-12-12-12-14-12----------------------12-14-17-15-14----15-14-12-------|
|-------------------14-12----12-12-14-12----------------14----------12-14-|
|-------------------------------------------------------------------------|
|-------------------------------------------------------------------------|
|-------------------------------------------------------------------------|
|-------------------------------------------------------------------------|

outro
|--------|
|--------|
|--------|
|------2-|
|------2-|
|-0-3--0-|

order of play
verse x4
chorus x1
verse x4
chorus x1
verse x4
solo
verse x2
chorus x1
verse x2
outro
Comments