Manic Street Preachers - Judge Yourself Chords & Tabs

 

Judge Yourself Chords & Tabs

Manic Street Preachers Chords & Tabs

Version: 1 Type: Bass Tab 0 ratings
1 star 2 stars 3 stars 4 stars 5 stars
comments

Judge Yourself Bass Tab

Artist: manic street preachers
Title: judge yourself

Intro

G:|------------------------------------------|
D:|------4h5p4/1-4h5p4/1---------------------|
A:|----------------------4h5p4/1-4h5p4/1-----|
E:|------------------------------------------|
B:|------------------------------------------|

G:|------------------------------------------|
D:|------4h5p4/1-4h5p4/1---------------------|
A:|----------------------4h5p4/1-------------|
E:|------------------------------------------|
B:|------------------------------------------|

verse
[ Tab from: http://www.guitartabs.cc/tabs/m/manic_street_preachers/judge_yourself_btab.html ]
G:|-------------------------------------|
D:|-------------------------------------|
A:|---------------44444-44444-----------|  x5
E:|---55555-55555-----------------------|
B:|-------------------------------------|

pre chorus

G:|-------------------------------------|
D:|-------------------------------------|
A:|-------------------------------------|
E:|--00000000222222225555555577777777---|
B:|-------------------------------------|

chorus

G:|----7-4-----------------|
D:|--------2-2h4-----------|
A:|--4---------------------|  x8
E:|------------------------|
B:|------------------------|

verse x5

pre chorus

chorus x16

verse x2

G:|---------|
D:|---------|
A:|--24/4---|
E:|---------|
B:|---------|

chorus x16


G:|---------|
D:|---------|
A:|--4------|
E:|---------|
B:|---------|

And thats it, this tab is 100% corect
tabbed by seagul
www.samwilk0@aol.com
Comments