Manic Street Preachers - Intravenous Agnostic Chords & Tabs

 

Intravenous Agnostic Chords & Tabs

Manic Street Preachers Chords & Tabs

Version: 1 Type: Tab 0 ratings
1 star 2 stars 3 stars 4 stars 5 stars
comments

Intravenous Agnostic Tab

   
Intravenous Agnostic

Fill 1
e-------------------------------------------------|
b--6-6-6-6-6-8-8-8-8-8-8-6-6-6-6-6-6-6-6-6-6-6-6--|
G-------------------------------------------------|
D-------------------------------------------------|
A-------------------------------------------------|
E-------------------------------------------------|

Fill 2
e-------------------------------------------------|
b--6-6-6-6-6-8-8-8-8-8-8-6-6-6-6-6-6--------------|
G------------------------------------3-3-3-3-3-3--|
D-------------------------------------------------|
A-------------------------------------------------|
E-------------------------------------------------|

Fill 3
e----------------------------------------------|
b-7^~~~~~~~~~~~~~~~--4-4--3^4^3----------------|
G--------------------------------4-4-4-4-4-4---|
D----------------------------------------------|
A----------------------------------------------|
E----------------------------------------------|

Riff 1
e-------------------------------------------------|
b-------------------------------------------------|
G-------------------------3-3-3-3-3-3-3-3-3-3-3---|
D-5-5-5-5-5--3-3-3-3-3-3--3-3-3-3-3-3-3-3-3-3-3---|
A-5-5-5-5-5--3-3-3-3-3-3--1-1-1-1-1-1-1-1-1-1-1---|
E-3-3-3-3-3--1-1-1-1-1-1--------------------------|

Riff 2
e----------------------------------------------------|
b----------------------------------------------------|
G-------------------------3-3-3-3-3-3----------------|
D-5-5-5-5-5--3-3-3-3-3-3--3-3-3-3-3-3--8-8-8-8-8-8---|
A-5-5-5-5-5--3-3-3-3-3-3--1-1-1-1-1-1--8-8-8-8-8-8---|
E-3-3-3-3-3--1-1-1-1-1-1---------------6-6-6-6-6-6---|

Riff 3
e-----------------------------------|
b-----------------------------------|
G-----------------------------------|
D-6--6--5--4--3--6--6--6--5--4--3---|
A-6--6--5--4--3--6--6--6--5--4--3---|
E-4--4--3--2--1--4--4--4--3--2--1---|
[ Tab from: http://www.guitartabs.cc/tabs/m/manic_street_preachers/intravenous_agnostic_tab.html ]
Riff 4
e-----------------------------|
b-----------------------------|
G-------------------------7---|
D-6--6--5--4--3--6--6--6--7---|
A-6--6--5--4--3--6--6--6--5---|
E-4--4--3--2--1--4--4--4------|
 
Riff 5
e----------------------------------------------------------|
b----------------------------------------------------------|
G-4-4-4-4-4--7-7-7-7-7-7-7-7-------------7-7-7-7-7-7-7-7---|
D-4-4-4-4-4--7-7-7-7-7-7-7-7--5-5-5-5-5--7-7-7-7-7-7-7-7---|
A-2-2-2-2-2--5-5-5-5-5-5-5-5--5-5-5-5-5--5-5-5-5-5-5-5-5---|
E-----------------------------3-3-3-3-3--------------------|

Riff 6
e------------------------------|
b------------------------------|
G------------------------------|
D-5-5--x-x-x--7-7-7--x-x-x-x---|
A-5-5--x-x-x--5-5-5--x-x-x-x---|
E-3-3--x-x-x-------------------|

Solo 1
e---------------------------------------------------|
b-7-7-7-7-7--3-3-3-3-3-3--4-4--3^4^3----------------|
G-------------------------------------4-4-4-4-4-4---|
D---------------------------------------------------|
A---------------------------------------------------|
E---------------------------------------------------|

Solo 2
e------------------------------------------------------------------------|
b-7-7-7-7-7/8-8-8-8-8-8-8/10-10-10-10-10-10-10/12-12-12-12-12-12-12-12---|
G------------------------------------------------------------------------|
D------------------------------------------------------------------------|
A------------------------------------------------------------------------|
E------------------------------------------------------------------------|

Solo 3
e------------------------------------------------------------|
b-16-16-16/13-12-12-12-12-12-12-16-16-16/13-12-12-12-12-12---|
G------------------------------------------------------------|
D------------------------------------------------------------|
A------------------------------------------------------------|
E------------------------------------------------------------|

Solo 4



Song Structure:

Intro
| Fill 1 | Fill 1 | Fill 1 | Fill 1 |
		  | Riff 1 | Riff 1 |

Verse
| Fill 2 | Fill 2 | Fill 2 | Fill 2 |
| Riff 2 | Riff 2 | Riff 2 | Riff 2 |

Pre Chorus
| Riff 3 | Riff 4 |

Chorus
| Riff 5 | Riff 5 | Riff 5 | Riff 6 | Riff 6 | Riff 6 | G5

Bridge
| Fill 1 | Fill 1 |
| Riff 1 | Riff 1 |

Verse
Pre Chorus
Chorus
Solo
| Solo 1 | Solo 1 | Solo 1 | Solo 1 | Solo 2 | Solo 3 | Oi! Nutter | 
                  | Fill 3 | Fill 3 | Solo 2 | Solo 3 | Oi! Nutter |
Chorus
End
A5

Tabbed By Robert Briden. Please send me all your corrections to unspokenlinguist@hotmail.com. Thanx
Comments