Manic Street Preachers - If White America Chords & Tabs

 

If White America Chords & Tabs

Manic Street Preachers Chords & Tabs

Version: 2 Type: Bass Tab 0 ratings
1 star 2 stars 3 stars 4 stars 5 stars
comments

If White America Bass Tab

Manic Street Preachers
If White America 



Track 2 - The Holy Bible 

VERSE (I'm not sure of the intro)

G-----------------------------------------------------------------------
D-----------------------------------------------------------------------
A--7-7--7-7--7-7--7-7--7-7--7-7--7-7--7-7--7-7--7-7--7-7--7-7--7-7--7-7-
E-----------------------------------------------------------------------

CHORUS

------------------------------------------------------------------------
------------------------------------------------------------------------
----4-4-4-4-4-4--0-0-0-0-0-0--7-7-7-7-7-7--2-2-2-2-2-2--2-3-4-----------
------------------------------------------------------------------------

The part after the chorus (it begins with "conservatives say").
[ Tab from: http://www.guitartabs.cc/tabs/m/manic_street_preachers/if_white_america_btab_ver_2.html ]
------------------------------------------------------------------------
------------------------------------------------------------------------
------------------------------------------------------------------------
----0-0-0-0--0-0-0-0--0-0-0-0--0-0-0-0--0-0-0-0--0-0-0-0--0-0-0-0-------

transcribed by Richard Coombes 
--------------------------------------------------------------------------------

                                                
G-|---------------------------------------------------------------------
D-|---------------------------------------------------------------------
A-|-------------2-3-3-3-2-3-3-3-3-0-------------------------------------
E-|-3-3-3-3-3-3---------------------------------------------------------
    Verse

transcribed by Adam and Paul Firth 
Comments