Manic Street Preachers - Further Away Chords & Tabs

 

Further Away Chords & Tabs

Manic Street Preachers Chords & Tabs

Version: 1 Type: Bass Tab 0 ratings
1 star 2 stars 3 stars 4 stars 5 stars
comments

Further Away Bass Tab

Bass Tab:  Further Away
Artist:    Manic Street Preachers
Album:     Everything Must Go
Track:     11
Tabbed By: Joe Osborne

Intro:

G-|-----------------------------------------------------------------|
D-|-----------------------------------------------------------------|
A-|-3-3-3-3---------0-0-0-0---------5-5-5-5-5-5-5-5-----------------|
E-|---------0-0-0-0---------3-3-3-3-----------------3-3-3-3-3-3-3-3-|

Verse:                                                              To Bridge:
                                                                  x2  
G-|-----------------------------------------------------------------|-------|
D-|-----------------------------------------------------------------|-------|
A-|-3-3-3-3---------0-0-0-0---------5-5-5-5-5-5-5-5-----------------|-------|
E-|---------0-0-0-0---------3-3-3-3-----------------3-3-3-3-3-3-3-3-|-3-2-1-|
[ Tab from: http://www.guitartabs.cc/tabs/m/manic_street_preachers/further_away_btab.html ]
Bridge:
   
G-|---------------------------------------------------------|
D-|---------------------------------------------------------|
A-|-----------------0-0-0-0---------------------------------|
E-|-1-1-1-1-0-0-0-0---------3-3-3-3-3-3-3-3-3-3-3-3-3-3-3-3-|

Chorus:                                              Last Chorus: 
                                                  x2       Play To End      
G-|-------------------------------------------------|-----------------|
D-|-------------------------------------------------|-----------------|
A-|-3-3-3-3---------0-0-0-0-------------------------|-----------------|
E-|---------3-3-3-3---------3-3-3-3-2-1-2-1-2-1-2-1-|-2-1-2-1-2-1-2-1-|

Solo:

G-|-------------------------------------------------|
D-|-------------------------------------------------|
A-|-3-3-3-3---------0-0-0-0-------------------------|
E-|---------3-3-3-3---------3-3-3-3-2-1-2-1-2-1-2-1-|


Intro
Verse
Bridge
Chorus
Verse
Bridge
Chorus
Solo
Chorus

Comments