Manic Street Preachers - Found That Soul Chords & Tabs

 

Found That Soul Chords & Tabs

Manic Street Preachers Chords & Tabs

Version: 4 Type: Tab 0 ratings
1 star 2 stars 3 stars 4 stars 5 stars
comments

Found That Soul Tab

   
Manic Street Preachers   Found That Soul.
Tabbed by motownjunk2002@hotmail.com.
  
Riff 1: 
D)-------------11-11-11-11-11-11-11
A)-------------11-11-11-11-11-11-11
E)--0-0-0------9--9--9--9---9--9--9

Riff 2:
D)-11-11-11----9-9-9-9-9-9-9
A)-11-11-11----9-9-9-9-9-9-9
E)--9-9--9-----7-7-7-7-7-7-7

Verse 1)

Riff 1             Riff 1
Show me a wonder   You cant be sure of
Riff 1              Riff 1
I exist in a place  A self made vacuum
Riff 2                    Riff 2
But still stranded here   With all the scum
Riff 1               Riff 1
So clean so lost    So beautiful

Chorus:

    But   I   Found   that   soul
G)--------------------------6-6-6
D)-7-7-7--6-6-6-6-6-6-6-6-6-6-6-6
A)-7-7-7--6-6-6-6-6-6-6-6-6-4-4-4
E)-5-5-5--4-4-4-4-4-4-4-4-4------
[ Tab from: http://www.guitartabs.cc/tabs/m/manic_street_preachers/found_that_soul_tab_ver_4.html ]
    Yeah    I   found    that   home
G)-6-6-6-6-6-6-6-6-6-6-6-6-6--------
D)-6-6-6-6-6-6-6-6-6-6-6-6-6---7-7-7
A)-4-4-4-4-4-4-4-4-4-4-4-4-4---7-7-7
E)-----------------------------5-5-5

    But   I  found   that   soul
G)-4-4-4-4-4-4-4-4-4-4-4-6-6-6-6
D)-4-4-4-4-4-4-4-4-4-4-4-6-6-6-6
A)-2-2-2-2-2-2-2-2-2-2-2-4-4-4-4
E)------------------------------

Repeat Chorus

Verse 2:
Not a subject   Not a subject am I
Sick and pale   But strangly alive
Broken blood vessels   Line my cheeks
Reflections look bad    But somehow unreal

Chorus
Solo
Outro:- (X3)

     Show  me a wonder
G)-6-6-6-6-6-6-6-6-6-6-6
D)-6-6-6-6-6-6-6-6-6-6-6
A)-4-4-4-4-4-4-4-4-4-4-4
E)----------------------    
 
:: Ultimate Guitar Archive :: 
http://www.ultimate-guitar.com 

Comments