Manic Street Preachers - Found That Soul Chords & Tabs

 

Found That Soul Chords & Tabs

Manic Street Preachers Chords & Tabs

Version: 2 Type: Tab 1 rating
1 star 2 stars 3 stars 4 stars 5 stars
comments

Found That Soul Tab

Found That Soul

Intro
e--------------------------------|
b--------------------------------|
G--------------------------------|
D---14-14-14--11-11-11-11-11-11--| x2
A---14-14-14--11-11-11-11-11-11--|
E---12-12-12---9--9--9--9--9--9--|

Verse
e--------------------------------|
b--------------------------------|
G--------------------------------|
D---14-14-14--11-11-11-11-11-11--| x4
A---14-14-14--11-11-11-11-11-11--|
E---12-12-12---9--9--9--9--9--9--|

e-----------------------------------------------------|
b-----------------------------------------------------|
G-----------------------------------------------------|
D---14-14-14--9-9-9-9-9-9-9--11-11-11--9-9-9-9-9-9-9--| 
A---14-14-14--9-9-9-9-9-9-9--11-11-11--9-9-9-9-9-9-9--| Repeat Intro
E---12-12-12--7-7-7-7-7-7-7---9--9--9--7-7-7-7-7-7-7--|

Chorus
e-----------------------------------------------------|
b-----------------------------------------------------|
G-----------------------------------------------------|
D--7-7-7-7-7-6-6-6-6-6-6-11-11-11-11-11-11-11-11-11---|  x4
A--7-7-7-7-7-6-6-6-6-6-6-11-11-11-11-11-11-11-11-11---|
E--5-5-5-5-5-4-4-4-4-4-4--9--9--9--9--9--9--9--9--9---|
[ Tab from: http://www.guitartabs.cc/tabs/m/manic_street_preachers/found_that_soul_tab_ver_2.html ]
Verse 2: Repeat Verse 1
Chorus
Solo: Second Guitar Plays Chorus Over Solo
e--------------------------------------------------------------------------|
b--------------------------------------------------------------------------|
G--9-9-9-9-9-11-11-11-11-11-13~~~~~~~~~~~~~--14-14-14-14-13-11-11-11-11-9--|
D--------------------------------------------------------------------------|
A--------------------------------------------------------------------------|
E--------------------------------------------------------------------------|

e---------------------9-9-9-9-9-5ho8--17-17-17-17-17-5ho8-9-9-9-9-9-5-7----|
b--------------------------------------------------------------------------|
G--8-8-8-8-4-6-6-6-6-------------------------------------------------------|
D--------------------------------------------------------------------------|
A--------------------------------------------------------------------------|
E--------------------------------------------------------------------------|

e-9-9-9-9-9-11-12----------------------------------------------------------|
b--------------------------------------------------------------------------|
G--------------------6ho8--8^10^8--8po6--4ho6--6^8^6--6po4-----------------|
D--------------------------------------------------------------------------|
A--------------------------------------------------------------------------|
E--------------------------------------------------------------------------|

e-9-9-9-9-9-5-7-9-9-9-9-9---|
b---------------------------|
G---------------------------|
D---------------------------|
A---------------------------|
E---------------------------|

Chorus

Outro: Repeat Intro x2

e-------|
b-------|
G-------|
D--11\--|
A--11\--|
E---9\--|

Tabbed By Robert Briden. Any Corrections Especially on The Solo Please Contact Me At unspokenlinguist@hotmail.com. Stay Beautiful.
Comments