Manic Street Preachers - Found That Soul Chords & Tabs

 

Found That Soul Chords & Tabs

Manic Street Preachers Chords & Tabs

Version: 1 Type: Tab 1 rating
1 star 2 stars 3 stars 4 stars 5 stars
comments

Found That Soul Tab

   
I worked this out a few weeks ago when the Manics were performing 
live on TV. Its just the goods but I'm certain what I have written 
is correct. 
The timing's there throughout, including a sample of the lyrics to
give an idea of the timing to the chorus. 
(note, there are four beats to a bar, hence 1 & 2 & 3 & 4 &)




VERSE

 C#                       E   C# 
----------------|-----------------
----------------|-----------------
----------------|-----------------
-11-------------|---------14--11--
-11-------------|---------14--11--
-9--------------|---------12--9---
 1 & 2 & 3 & 4 &  1 & 2 & 3 & 4 &

 C#                       E   B 
----------------|-----------------
----------------|-----------------
----------------|-----------------
-11-------------|---------14--9---
-11-------------|---------14--9---
-9--------------|---------12--7---
 1 & 2 & 3 & 4 &  1 & 2 & 3 & 4 &
[ Tab from: http://www.guitartabs.cc/tabs/m/manic_street_preachers/found_that_soul_tab.html ]
 B                        C#  B 
----------------|-----------------
----------------|-----------------
----------------|-----------------
-9--------------|---------11--9---
-9--------------|---------11--9---
-7--------------|---------9---7---
 1 & 2 & 3 & 4 &  1 & 2 & 3 & 4 &


 B                        E   C# 
----------------|-----------------
----------------|-----------------
----------------|-----------------
-9--------------|---------14--11--
-9--------------|---------14--11--
-7--------------|---------12--9---
 1 & 2 & 3 & 4 &  1 & 2 & 3 & 4 &  
                                    
CHORUS                             
                                   
 A              G#             C#                       
----------------------------------
----------------------------------
-------------------------------6--
-7--------------6--------------6--
-7--------------6--------------4--
-5--------------4-----------------
I've...         I've found that soul
Comments