Manic Street Preachers - Drug Drug Druggy Chords & Tabs

 

Drug Drug Druggy Chords & Tabs

Manic Street Preachers Chords & Tabs

Version: 1 Type: Tab 0 ratings
1 star 2 stars 3 stars 4 stars 5 stars
comments

Drug Drug Druggy Tab

   
Drug Drug Druggy - Manic Street Preachers
Track 6 - "Gold Against the Soul"

Is it just me, or would this have been an ideal single to take from the album?

Ok, no guarantees that this is exactly what James is playing in this one,
but stick to these power chords and you won't go far wrong.

-------------
Intro & Verse
-------------

e----------------------
B----------------------
G-8--8--6------4--4--3-
D-9--9--7------5--5--4-
A-9--9--7------5--5--4-
E-7--7--5------3--3--2-

(B5 A5 G5 F#5)

------
Bridge
------

e---------------------------------
B---------------------------------
G-4--4--4--4-4-4--6--6--6-6-6-6-6-
D-5--5--5--5-5-5--7--7--7-7-7-7-7-
A-5--5--5--5-5-5--7--7--7-7-7-7-7-
E-3--3--3--3-3-3--5--5--5-5-5-5-5-

(G5 A5)

e---------------------------------
B---------------------------------
G-4--4--4--4-4-4--3--3--3-3-3-3-3-
D-5--5--5--5-5-5--4--4--4-4-4-4-4-
A-5--5--5--5-5-5--4--4--4-4-4-4-4-
E-3--3--3--3-3-3--2--2--2-2-2-2-2-
[ Tab from: http://www.guitartabs.cc/tabs/m/manic_street_preachers/drug_drug_druggy_tab.html ]
(G5 F#5)

------
Chorus
------

e------------------------------------------------
B------------------------------------------------
G------------------------9--9--8-6-6-6-4-4-6-6-4-
D-9--6--4-6-6-4-4-6-6-4--9--9--8-6-6-6-4-4-6-6-4-
A-9--6--4-6-6-4-4-6-6-4--7--7--6-4-4-4-2-2-4-4-2-
E-7--4--2-4-4-2-2-4-4-2--------------------------  (x2)

(B5 G#5 F#5 G#5 F#5 G#5 F#5 E5 D#5 C#5 B5 C#5 B5)

e----------------------
B----------------------
G-12-12-11-9-9-9-9-9-9-
D-12-12-11-9-9-9-9-9-9-
A-10-10-9--7-7-7-7-7-7-
E----------------------  (x2)

(G5 F#5 E5)

----------------------------------------------------------------------
By David Thompson (bring_it_on53@hotmail.com)

Mail me with any suggestions, corrections, or if you have had the time 
and put in the effort to tab the solo.
----------------------------------------------------------------------
Comments