Manic Street Preachers - Born To End Chords & Tabs

 

Born To End Chords & Tabs

Manic Street Preachers Chords & Tabs

Version: 1 Type: Bass Tab 0 ratings
1 star 2 stars 3 stars 4 stars 5 stars
comments

Born To End Bass Tab

   
Author/Artist: Manic Street Preachers
Title: Born to End
Album: Generation Terrorists
Transcribed by: Eleanor Mollett
Email: ellie_mollett@hotmail.com

**I only tab for Guitar Tab Universe! - www.guitartabs.cc**

The song goes like this:
Intro
Verse
Pre chorus
Chorus
Intro
Verse
Pre Chorus
Chorus
Mid Section
Chorus
Outro

INTRO:
G|------------------------------------------------------------------------------------------|
D|-----0----------------------------------------0-0-0-0-0-----------------------------------|
A|-0-2-------0-----0--------------------------------------0-0-0-0-0-0-----------------------|
E|-------0-2---0-2---2-0-2-2-2-2-2-3-3-3-3-3-3-----------------------2-2-2-2-2-3-3-3-3-3-3-3|


VERSE:
G|-----------------------------------------------|
D|-0-0-0-0-0-------------------------------------|
A|-----------0-0-0-0-0-0-0-----------------------|  x 4
E|-------------------------2-2-2-2-2-3-3-3-3-3-3-|

PRE-CHORUS:
G|--------------------|
D|--------------------|
A|-----------0--------|  x 4
E|-0-0-0-2-4---2-4-0--|

[ Tab from: http://www.guitartabs.cc/tabs/m/manic_street_preachers/born_to_end_btab.html ]
CHORUS:
G|------------------------------------------------------------------------------|
D|-2-2-2-2-2-0-0-0-0-0-0-2-2-2-2-2-0-0-0-0-0-0-2-2-2-2-2-2-0-0-0-0-0-0-2-2-2-2-2|
A|------------------------------------------------------------------------------|
E|------------------------------------------------------------------------------|

G|-------------------------------------------|
D|-0-0-0-0-0-0-2-2-2-2-2---------------------|
A|-------------------------4-h-5----4-h-5----|
E|-------------------------------------------|

MID SECTION:
G|-0-0-0-0-0-0-0-0-0-0-------------------0-0-0-0-0-0-0-0-0-0-------------------0-0-0-0-0-0-0-0-0--|
D|---------------------0-0-0-0-0-0-0-0-0---------------------0-0-0-0-0-0-0-0-0--------------------|
A|------------------------------------------------------------------------------------------------|
E|------------------------------------------------------------------------------------------------|

G|--------------------------------------------------------|
D|-2--0---2--0---2--0---2--0---2--0---2--0---2--0---2--0--|
A|--------------------------------------------------------|
E|--------------------------------------------------------|

OUTRO:
G|------------------------------------|
D|--4h5--4h5--4h5/7--4h5--4h5/7--4h5--|
A|------------------------------------|
E|------------------------------------|


**I only tab for Guitar Tab Universe! - www.guitartabs.cc**
Comments