Manic Street Preachers - Been A Son Chords & Tabs

 

Been A Son Chords & Tabs

Manic Street Preachers Chords & Tabs

Version: 1 Type: Tab 0 ratings
1 star 2 stars 3 stars 4 stars 5 stars
comments

Been A Son Tab

          Band:Manic Street Preachers
          Song: Been A Son (Nirvana Cover)
          Album: None
          Transcribed by:SLAUGHTER!!!!!!!!!!!!! (s_laughter_uk@yahoo.co.uk)
          
          
          Tuning:DGDGBD
          
          1, 2, 3, 4....
          
          1st RIFF
          w/slide
          -----------------------------
          -----------------------------
          ------5\--3\2-0----5\--3\2-0-
          -----------------------------
          -0-/5--\3-------/5--\3-------
          ----------------------------- x2
          
          INTRO
          
          riff x2
          She should have stayed away from friends,
          riff x2
          She should have had more time to spend,
          riff x1------------------------------
                 ------5\--3\2-0----5\--3\2-0--2nd RIFF
                 ------5\--3\2-0----5\--3\2-0--
                 ------------------------------
                 -0-/5--\3-------/5--\3--------
                 ------------------------------ x1
          She should have died when she was born,
          1st riff x2
          She should have worn a crown of thorns.
          
          CHORUS
          
          Chorus riff 1
          --------------------------------
          --------------------------------
          ------/10--10\-/8--8\-/7---7----
          --------------------------------
          --------------------------------
          -------------------------------- x2
          She shoulda been, been a son,
          
          Chorus riff 2
          --------------------------------
          ------/10--10\-/8--8\-/7---7----
          ------/10--10\-/8--8\-/7---7----
          --------------------------------
          --------------------------------
          --------------------------------
          She shoulda been, been a son,
          
          Chorus riff 3
          ------/10--10\-/8--8\-/7---7----\----
          ------/10--10\-/8--8\-/7---7----\----
          ------/10--10\-/8--8\-/7---7----\----
          -------------------------------------
          -------------------------------------
          -------------------------------------
          She shoulda been, been a son.
          
          VERSE
          w/out 2nd riff, just 1st
          
          She should have stood out in the crowd,
          She should have made her mother proud,
          She should have fallen on her stance,
          She should have had another chance.
          
          REPEAT CHORUS
          w/slight variation
          
          Let ring for 2 bars
          
          VERSE
          
          1st riff 
          She should have stayed away from friends,
          1st riff 
          She should have had more time to spend,
          1st bit of 2nd riff 2nd bit of 1st riff 
          She should have died when she was born,
          1st bit of 2nd riff 2nd bit of 1st riff
          She should have worn a crown of thorns.
          
          CHORUS
          
          1st riff              Chorus riff 1
          She should have been, been a son, She should have been
          
          -----------------------------------
          ---------------------------7/8\7---
          ------/10--10\-/8--8\-/7---------7-
          -----------------------------------
          -----------------------------------
          -----------------------------------
                Been a son,         She shoulda been,
          
          Chorus riff 2
          Been a son, She shoulda been,
          Chorus riff 3
          Been a son.
          
          Please email me if this is a little complicate, or
          please 
          email me anyway!
          s_laughter_uk@yahoo.co.uk
          Please visit my
          website:www.homestead.com/slaughtertabs
[ Tab from: http://www.guitartabs.cc/tabs/m/manic_street_preachers/been_a_son_tab.html ]
Comments