Manic Street Preachers - Archives Of Pain Chords & Tabs

 

Archives Of Pain Chords & Tabs

Manic Street Preachers Chords & Tabs

Version: 1 Type: Tab 0 ratings
1 star 2 stars 3 stars 4 stars 5 stars
comments

Archives Of Pain Tab

   
as any manics fan will know, this is possibly one of the best solos on any of the
albums. atleast, that's my opinion. but no one knows how to play it. so here we go,
i worked it all out for you. just so you guys know, i had my top E string busted at
the time, so the higher notes on the B string you can just move down five frets and
play on the e.

happy playing guys! 
~salamander3~

| /  slide up
| \  slide down
| h  hammer-on
| p  pull-off
| ~  vibrato
| +  harmonic
| x  Mute note

 ' ..i give them the respect they D E S E R V! E!'

e|-------------------------------|
B|---10-8----------8-12-8--------|
G|--------11-7-------------------|       X4
D|-------------10----------------|
A|-------------------------------|
D|-------------------------------|

e|-----------------------------------------|-------------------------------|
B|-1010101011-10h11p10--10-----------------|-88889-8h9p8--8----------------|
G|--------------------12--1210---------10--|------------10--108-------8----|
D|-----------------------------12101012----|--------------------108810-----|
A|-----------------------------------------|-------------------------------|
D|-----------------------------------------|-------------------------------|
[ Tab from: http://www.guitartabs.cc/tabs/m/manic_street_preachers/archives_of_pain_tab.html ]
e|-----------------------------------------|-------------------------------|
B|-1010101011-10h11p10--10-----------------|-88889-8h9p8--8----------------|
G|--------------------12--1210---------10--|------------10--10-------------|
D|-----------------------------12101012----|-------------------------------|
A|-----------------------------------------|-------------------------------|
D|-------------------------------------------------------------------------|

e|---------------------------------------------------|
B|-151515-1517-1315-1013-810-68-31136-8--9-8686------|
G|---------------------------------------------------|
D|---------------------------------------------------|
A|---------------------------------------------------|
D|---------------------------------------------------|

e|---------------------------------------|
B|-151515-1517-1315-1013-810-68-31136-8--|
G|---------------------------------------|
D|---------------------------------------|
A|---------------------------------------|
D|---------------------------------------|


That's the majority of it. the rest is easy enough to work out yourselves.


for any other details or if you wish to contact me, email me on lizard_of_fire@hotmail.com

ROCK ON MANICS! 10 years anniversary!
Comments