Manic Street Preachers - A Secret Society Chords & Tabs

 

A Secret Society Chords & Tabs

Manic Street Preachers Chords & Tabs

Version: 1 Type: Tab 0 ratings
1 star 2 stars 3 stars 4 stars 5 stars
comments

A Secret Society Tab

   
I was at Hammersmith on Tuesday 19th April 2005, and was lucky enough to get a free CD 
of the new EP God Save The Manics. So I thought I'd have a crack at tabbing a couple of 
from it, and they're all ace. I've been playing this all day, and I'm pretty sure it's
right. Feel free to correct me if not.

Intro/chorus

   G BmEmC         D
E|-------------------|
B|---3---5---------7-|
G|-4-4-0-5-x2 then-7-|
D|-5-4-2-5---------7-|
A|-5-2-2-3---------5-|
E|-3---0-------------|

Verse
[ Tab from: http://www.guitartabs.cc/tabs/m/manic_street_preachers/a_secret_society_tab.html ]
   G BmEmA5        C
E|-------------------|
B|---3-------------5-|
G|-4-4-0-2-x2 then-5-|
D|-5-4-2-2---------5-|
A|-5-2-2-0---------3-|
E|-3---0-------------|

There's a little line over that last C, and a last note in the chorus: B|-7-7-5-5-x2,-then-3

E|---------------------------------------|
B|---5h8p5----------5-whole-7-7-5-5-x2-3-|
G|-7-------x3-8-8-9---thing--------------|
D|--------------------twice--------------|
A|---------------------------------------|
E|---------------------------------------|

End on a G.

Enjoy this, it was great when they played it the other night, and it'll be a while till 
play it live again.
Comments