Manic Street Preachers - 4st 7lb Chords & Tabs

 

4st 7lb Chords & Tabs

Manic Street Preachers Chords & Tabs

Version: 3 Type: Bass Tab

4st 7lb Bass Tab

Bass tab for 4st 7lb by the Manic Street Preachers, off their album the Holy
Bible. Please rate and enjoy!

Intro/Verses
G|-----------------------------------------------------------------|
D|---------3-3---------3-3-----------------2-2---------2-2---------| (repeat)
A|-----1-1---------1-1---------1-0-----1-1---------1-1---------1-0-|
E|-3-3---------3-3---------3-3-----3-3---------3-3---------3-3-----|


Pre-chorus ("Karen says...")
G|----------------------------------------------------------------|
D|----------------------------------------------------------------|
A|--------5----5--------3-----------------------------------------|
E|-5----5--------3----3-----7-7-7-7-7-7-7-7-7-7/0-0-0-0-0-0-0-0-0-|
                            (not sure on amount of 7's and 0's)
[ Tab from: http://www.guitartabs.cc/tabs/m/manic_street_preachers/4st_7lb_btab_ver_3.html ]
Chorus ("I I I I I wanna walk...")
G|------------------------|
D|------------------------|   (repeat)
A|-6-6-6-5-5-5--3-3-3-5-5-|
E|------------------------|

Verses
Pre-chorus
Chorus

Ending (slow part)
G|-------------------  (then add      G|----------   G|-------|
D|-----------3--3-5-5  these          D|----------   D|-5-3---|
A|-3--3-3--3---------  fills in       A|---0-3-5-3   A|-----5-|
E|-------------------  occasionally)  E|-3--------   E|-------|
On the first fill, I think you skip the last 5 on D string in the regular part.

There's another part that comes in at like 4:06 and 4:51
G|------------------|
D|------------------|
A|------------------|
E|-5--5-5--5-5--5-5-|

Fill at 4:34
G|----------------|
D|-7-5--2-3-2-----|
A|------------5-3-|
E|----------------|