Manic Street Preachers - 4st 7lb Chords & Tabs

 

4st 7lb Chords & Tabs

Manic Street Preachers Chords & Tabs

Version: 2 Type: Bass Tab 0 ratings
1 star 2 stars 3 stars 4 stars 5 stars
comments

4st 7lb Bass Tab

Manic Street Preachers
4st 7lb 



Track 7 - The Holy Bible 
[ Tab from: http://www.guitartabs.cc/tabs/m/manic_street_preachers/4st_7lb_btab_ver_2.html ]
                                                          
G-|---------------------------------------------------------------------
D-|---------3-3---------3-3-----------------2-2---------2-2-------------
A-|-----1-1---------1-1---------1-0-----1-1---------1-1---------1-0-----
E-|-3-3---------3-3---------3-3-----3-3---------3-3---------3-3---------
    Verse                 (Watch the timing-freaky 3 3 2 thing!                
                                                                               
G-|---------------------------------------------------------------------
D-|---------------------------------------------------------------------
A-|-0-0-5-5-----3-3-2-2-2-7-7-6-5-3-5--6-5-3-5--(4)---------------------
E-|---------3-3---------------------------------------------------------
    Chorus                                      before quiet bit               
                                                                               
G-|---------------------------------------------------------------------
D-|-------3-3--------------------3-3--------------3-3----------5-3-2-3--
A-|-3-3-3-----------3-5-3--3-3-3--------------3-3--------3-5-3----------
E-|-----------3-3-5------------------3-3-5--3--------3-5---------------3
-3-5--|
    Quiet bit 

transcribed by Adam and Paul Firth  
Comments