Manhattan Project - No Way Out Chords & Tabs

 

No Way Out Chords & Tabs

Manhattan Project Chords & Tabs

Version: 1 Type: Tab 0 ratings
1 star 2 stars 3 stars 4 stars 5 stars
comments

No Way Out Tab

   
                        +-----------------------+
                        |No Way Out "Deluxe Tab"|
                        +-----------------------+

Words and music by Travis Lausch and Kory Holmes

All guitars in standard tuning (low to high E A D G B E)

Chords

F#5 = 2-4-x-x-x-x
G5 = 3-5-x-x-x-x
B5 = x-2-4-x-x-x
A5 = 0-0-2-x-x-x
C5 = x-3-5-x-x-x

A - Intro

Gtrs 1 and 2
    Q   h+E      Q   h+E      Q   h+E      Q   h+E      Q   h+E
||------------|------------|------------|------------|------------|
||------------|------------|------------|------------|------------|
||------------|------------|------------|------------|------------|
||------------|--2---0-----|------------|--2---0-----|------------|
||--2---3-----|------------|--2---3-----|------------|------------|
||------------|------------|------------|------------|--2---3-----|

   Q   h+E      Q   h+E      Q   h+E      Q   h+E      Q   h+E
|------------|------------|------------|------------|------------|
|------------|------------|------------|------------|------------|
|------------|------------|------------|------------|------------|
|------------|--2---3-----|--2---0-----|------------|--2---0-----|
|--2---3-----|------------|------------|--2---3-----|------------|
|------------|------------|------------|------------|------------|

                          B - 1st verse 
                          rhy. fig. 1
                          (gtrs 1 and 2)
                              F#5 G5       B5  A5       F#5 G5
   Q   h+E      Q   h+E       Q   h+E      Q   h+E      Q   h+E
|------------|------------||------------|------------|------------|
|------------|------------||------------|------------|------------|
|------------|------------||------------|------------|------------|
|------------|------------||------------|--4---2-----|------------|
|--2---3-----|--2---0-----||--4---5-----|--2---0-----|--4---5-----|
|------------|------------||--2---3-----|------------|--2---3-----|

             Gtr 1 plays rhy. fig. 1
             Gtr 2                            
             Riff A
   B5  A5        F#5 G5       B5  A5       F#5 G5       B5  A5
                     ~~~~         ~~~~         ~~~~         ~~~~
   Q   h+E       Q   h+E      Q   h+E      Q   h+E      Q   h+E
|------------||------------|------------|------------|------------||
|------------||--7---8-----|--12--10----|--7---8-----|--12--10----||
|------------||o-7---9-----|--12--11----|--7---9-----|--12--11---o||
|--4---2-----||o-----------|------------|------------|-----------o||
|--2---0-----||------------|------------|------------|------------||
|------------||------------|------------|------------|------------||

C - 1st Chorus
Gtr 2 plays Riff A six times            
Gtr 1                                   Gtr 1
Rhy. Fig. 2           (repeat 4 times)  Rhy. fig. 3
    F#5   G5          B5    A5            B5  G5       C5  F#5
    E E E q  E E E    E E E q  E E E      Q   h+E      Q   h+E
||-----------------|------------------||------------|------------||
||-----------------|------------------||------------|------------||
||o----------------|-----------------o||o-----------|-----------o||
||o--------------r-|--4-4-4-2--2-2-r-o||o-4---------|--5--------o||
||--4-4-4-5--5-5---|--2-2-2-0--0-0----||--2---5-----|--3---4-----||
||--2-2-2-3--3-3---|------------------||------3-----|------2-----||

D - 2nd Verse                                E - 2nd Chorus
Gtr 1 plays Rhy. Fig. 2 four times            
Gtr 2                                         Gtr 1 plays Rhy. Fig. 2
Riff B                       (repeat 4 times)  
    F#5   G5          B5       A5               F#5 G5       B5  A5
    E E E q  E E E    E  E  E  q   E  E  E      Q   h+E      Q   h+E
||-----------------|------------------------||------------|------------|
||--7-7-7-8--8-8---|--12-12-12-10--10-10----||--7---8-----|--12--10----|
||o-7-7-7-9--9-9---|--12-12-12-11--11-11---o||--7---9-----|--12--11----|
||o--------------r-|---------------------r-o||------------|------------|
||-----------------|------------------------||------------|------------|
||-----------------|------------------------||------------|------------|

F - 1st interlude

Gtrs 1 and 2
Rhy. Fig. 4
    B5  G5       C5  F#5      B5  G5       C5  F#5
||------------|------------|------------|------------||
||------------|------------|------------|------------||
||------------|------------|------------|------------||
||--4---------|--5---------|--4---------|--5---------||
||--2---5-----|--3---4-----|--2---5-----|--3---4-----||
||------3-----|------2-----|------3-----|------2-----||

G - 1st Guitar solo
Gtr 1 plays Rhy. fig. 4 four times
Gtr 2
    B5                         G5
       3        3        3        3        3        3        3        3
    s  s  s  s  s  s  s  s  s  s  s  s  s  s  s  s  s  s  s  s  s  s  s  s
    T        T        T        T        T        T        T        T
||--19^15^12-19^15^12-19^15^12-19^15^12-19^15^12-19^15^12-19^15^12-19^15^12--|
||---------------------------------------------------------------------------|
||o--------------------------------------------------------------------------|
||o--------------------------------------------------------------------------|
||---------------------------------------------------------------------------|
||---------------------------------------------------------------------------|

   C5                         F#5
      3        3        3        3        3        3        3        3
   s  s  s  s  s  s  s  s  s  s  s  s  s  s  s  s  s  s  s  s  s  s  s  s
   T        T        T        T        T        T        T        T
|--20^15^12-20^15^12-20^15^12-20^15^12-20^15^12-20^15^12-20^15^12-20^15^12--||
|---------------------------------------------------------------------------||
|--------------------------------------------------------------------------o||
|--------------------------------------------------------------------------o||
|---------------------------------------------------------------------------||
|---------------------------------------------------------------------------||

    B5                         G5
       3        3        3        3        3        3        3        3
    s  s  s  s  s  s  s  s  s  s  s  s  s  s  s  s  s  s  s  s  s  s  s  s
    T        T        T        T        T        T        T        T
||---------------------------------------------------------------------------|
||--19^15^12-19^15^12-19^15^12-19^15^12-19^15^12-19^15^12-19^15^12-19^15^12--|
||o--------------------------------------------------------------------------|
||o--------------------------------------------------------------------------|
||---------------------------------------------------------------------------|
||---------------------------------------------------------------------------|
[ Tab from: http://www.guitartabs.cc/tabs/m/manhattan_project/no_way_out_tab.html ]
   C5                         F#5 
      3        3        3        3        3        3        3        3
   s  s  s  s  s  s  s  s  s  s  s  s  s  s  s  s  s  s  s  s  s  s  s  s
   T        T        T        T        T        T        T        T
|---------------------------------------------------------------------------||
|--20^15^12-20^15^12-20^15^12-20^15^12-20^15^12-20^15^12-20^15^12-20^15^12--||
|--------------------------------------------------------------------------o||
|--------------------------------------------------------------------------o||
|---------------------------------------------------------------------------||
|---------------------------------------------------------------------------||

    B5                         G5
       3        3        3        3        3        3        3        3
    s  s  s  s  s  s  s  s  s  s  s  s  s  s  s  s  s  s  s  s  s  s  s  s
    T        T        T        T        T        T        T        T
||--19^15^12-19^15^12-19^15^12-19^15^12-19^15^12-19^15^12-19^15^12-19^15^12--|
||---------------------------------------------------------------------------|
||o--------------------------------------------------------------------------|
||o--------------------------------------------------------------------------|
||---------------------------------------------------------------------------|
||---------------------------------------------------------------------------|

   C5                         F#5
      3        3        3        3        3        3        3        3
   s  s  s  s  s  s  s  s  s  s  s  s  s  s  s  s  s  s  s  s  s  s  s  s
   T        T        T        T        T        T        T        T
|--20^15^12-20^15^12-20^15^12-20^15^12-20^15^12-20^15^12-20^15^12-20^15^12--||
|---------------------------------------------------------------------------||
|--------------------------------------------------------------------------o||
|--------------------------------------------------------------------------o||
|---------------------------------------------------------------------------||
|---------------------------------------------------------------------------||

    B5                         G5
       3        3        3        3        3        3        3        3
    s  s  s  s  s  s  s  s  s  s  s  s  s  s  s  s  s  s  s  s  s  s  s  s
    T        T        T        T        T        T        T        T
||---------------------------------------------------------------------------|
||--19^15^12-19^15^12-19^15^12-19^15^12-19^15^12-19^15^12-19^15^12-19^15^12--|
||o--------------------------------------------------------------------------|
||o--------------------------------------------------------------------------|
||---------------------------------------------------------------------------|
||---------------------------------------------------------------------------|

   C5                         F#5
      3        3        3        3        3        3        3        3
   s  s  s  s  s  s  s  s  s  s  s  s  s  s  s  s  s  s  s  s  s  s  s  s
   T        T        T        T        T        T        T        T
|---------------------------------------------------------------------------||
|--20^15^12-20^15^12-20^15^12-20^15^12-20^15^12-20^15^12-20^15^12-20^15^12--||
|--------------------------------------------------------------------------o||
|--------------------------------------------------------------------------o||
|---------------------------------------------------------------------------||
|---------------------------------------------------------------------------||

H - 2nd interlude                       I - 2nd Guitar Solo
Gtr 2 plays rhy. fig. 3 four times      Gtr 2 plays Rhy. Fig. 4 three times
Gtr 1               (repeat four times) 
Rhy. Fig. 4
    B5    G5          C5    F#5           B5    G5
    E E E q  E E E    E E E q  E E E      E E E E E E E E  
||-----------------|------------------||-------------------|
||-----------------|------------------||--7-5-0-7-5-0-7-0--|
||o----------------|-----------------o||-------------------|
||o-4-4-4--------r-|--5-5-5--------r-o||-------------------|
||--2-2-2-5--5-5---|--3-3-3-4--4-4----||-------------------|
||--------3--3-3---|--------2--2-2----||-------------------|
||                                                         |
||Gtr 3                                   w                |
||-----------------|------------------||--7----------------|
||-----------------|------------------||-------------------|
||-----------------|------------------||--4----------------|
||-----------------|------------------||--/----------------|
||-----------------|------------------||--/----------------|
||-----------------|------------------||--/----------------|

   C5    F#5           B5    G5            C5    F#5
   E E E E E E E E     E E E E E E E E     E E E E E E E E 
|-------------------|-------------------|-------------------|
|--8-5-0-8-5-0-8-0--|--7-5-0-7-5-0-7-5--|--8-5-0-8-5-0-8-0--|
|-------------------|-------------------|-------------------|
|-------------------|-------------------|-------------------|
|-------------------|-------------------|-------------------|
|-------------------|-------------------|-------------------|
|                                                           |
|  w                   w                   w                |
|--8----------------|--7----------------|--8----------------|
|-------------------|-------------------|-------------------|
|--5----------------|--4----------------|--5----------------|
|--/----------------|--/----------------|--/----------------|
|--/----------------|--/----------------|--/----------------|
|--/----------------|--/----------------|--/----------------|

   B5    G5            C5    F#5           N.C.
   E E E E E E E E     E E E E E E E E     E E E E E E E E
|-------------------|-------------------|-------------------|
|--7-5-0-7-5-0-7-0--|--8-5-0-8-5-0-8-5--|--7-5-0-7-5-0-7-0--|
|-------------------|-------------------|-------------------|
|-------------------|-------------------|-------------------|
|-------------------|-------------------|-------------------|
|-------------------|-------------------|-------------------|
|                                                           |
|  w                   w                                    |
|--7----------------|--8----------------|-------------------||
|-------------------|-------------------|-------------------||
|--4----------------|--5----------------|-------------------||
|--/----------------|--/----------------|-------------------||
|--/----------------|--/----------------|-------------------||
|--/----------------|--/----------------|-------------------||

                                                           fermata
                                                             (.)
   e e e e e e e e     e e e e e e e e     e e e e e e q+-----w   
|-------------------|-------------------|------------------|-----||
|--8-5-0-8-5-0-8-5--|--7-5-0-7-5-0-7-5--|--8-5-0-8-5-0-8---|--8--||
|-------------------|-------------------|------------------|-----||
|-------------------|-------------------|------------------|-----||
|-------------------|-------------------|------------------|-----||
|-------------------|-------------------|------------------|-----||
Comments