Mangione Chuck - Fun And Games Chords & Tabs

 

Fun And Games Chords & Tabs

Mangione Chuck Chords & Tabs

Version: 1 Type: Bass Tab 1 rating
1 star 2 stars 3 stars 4 stars 5 stars
comments

Fun And Games Bass Tab

Title: Fun and Games 
By Chuck Mangione
Transcribed by: Fanchie

Head:
G---------------------------------------------------------------------
D------3-5p3-/7--7-5--5-3----------------3-5p3----7-5-3-5--0h3--------
A--3h5-------------------------------3h5------------------------------
E-5-----------------------1-1--1---5----------------------------1-1--1

G---------------------------------------------------------------------
D------3-5p3-/7--7-5--5-3----------------3-5p3----7-5-3-5--0h3--------
A--3h5-------------------------------3h5------------------------------
E-5-----------------------1-1--1---5----------------------------1-1--1
[ Tab from: http://www.guitartabs.cc/tabs/m/mangione_chuck/fun_and_games_btab.html ]
Refrain/Chorus:
G-----------3-4-5--3--2-2---00-------------------2p0-2-0--0-----------
D------33-3---------------33---0h3--0-3-0h3-30----------3---0h3-------
A-3-3-5----------------------------------------3----------------------
E---------------------------------------------------------------1-1--1

G-----------3-4-5--3--2-2---00-------------------2p0-2-0--0-----------
D------33-3---------------33---0h3--0-3-0h3-30----------3---0h3-------
A-3-3-5----------------------------------------3----------------------
E---------------------------------------------------------------1-1--1


The whole song is just these two riffs repeating, plus a solo section 
in which the bass is just hanging out on a low F.
Comments