Mando Diao - Sweet Ride Chords & Tabs

 

Sweet Ride Chords & Tabs

Mando Diao Chords & Tabs

Version: 1 Type: Tab 0 ratings
1 star 2 stars 3 stars 4 stars 5 stars
comments

Sweet Ride Tab

   
-------------------------------------------------------------------------------
			     SWEET RIDE - MANDO DIAO
-------------------------------------------------------------------------------
Tabbed by:Señor
Email:sverigerocks@hotmail.com

Tuning:standard

intro:

Guitar 1
e|-3333---------------------------------------------------------------------|
B|-5555---------------------------------------------------------------------|
G|-5555---------------------------------------------------------------------|
D|-5555---------------------------------------------------------------------|
A|-3333--------6h8p6--------------------------------------------------------|
E|-3333-8-8-6-8-------------------------------------------------------------|

Guitar 2
C-Bb-C-Eb-F-Eb

verse:
C                                Bb
Get your motor runnin' cause my engine's too hot
         G#                        G
And the cooler's runnin' dry as a pimp
C                                  Bb
Get your things together cause I'm blowing my mind
          G#              G
And that Ronnie is an MTV star

chorus:
        Em                       C
It's my soul honey, that's up at eighty 
        Em                      Am
And my sweet ride has blown my lady away
Dm        G                          riff*
Soon, my motor's runnin' wild and I'm gone

*interlude/riff same as intro

verse:
Get your wheelers spinning cause I'm riding a lot
And my lady's back at home with her sins
Get your wheelers spinning cause I'm cruising at last
And my destination's somewhere between

chorus:
It's my soul honey that's up at eighty
And my sweet ride love and tries who make sense
Man, I'm runnin, wild and now I'm gone

interlude(shown above)

Here comes Ronnie!

It's my soul honey...
[ Tab from: http://www.guitartabs.cc/tabs/m/mando_diao/sweet_ride_tab.html ]
solo:
Guitar1 (during the solo Guitar 2 plays verse)
e|-------------------------------------------------------8—8h11p8h11/13p11---|
B|--8----------------------------------------8—-8h11p8h11-11-----------------|
G|-10b12r10p8-----8-8--8-8-10b11--8-8h10p8h10-10-----------------------------|
D|-----------h10-10---10---------10------------------------------------------|
A|---------------------------------------------------------------------------|
E|---------------------------------------------------------------------------|

e|-8-------------------------------------------------------------------------|
B|--11p8h11p8----------8-----8-----------------8-----------------------------|
G|-----------h10p8-10b11-10b11-10b11r10p8---8-10b11r10b11r10p8---------------|
D|---------------------------------------h10------------------h10------------|
A|---------------------------------------------------------------------------|
E|---------------------------------------------------------------------------|

e|---------------------------------------------------------------------------|
B|-8-----8-----8-----8-----8----------8--------------------------------------|
G|-10b11-10b11-10b11-10b11-10b11r10p8---10b11r10-10b11r1010101011-11111112---|
D|---------------------------------------------------------------------------|
A|---------------------------------------------------------------------------|
E|---------------------------------------------------------------------------|

e|---------------------------------------------------------------------------|
B|---------------------------------------------------------------------------|
G|-12121214------------------------------------------------------------------|
D|---------------------------------------------------------------------------|
A|---------------------------------------------------------------------------|
E|---------------------------------------------------------------------------|

outro: same as intro except Guitar 1 plays the following:
e|---------------------------------------------------------------------------|
B|---------------------------------------------------------------------------|
G|-10b11r10p8----------------------------------------------------------------|
D|-----------h10p8h9h10------------------------------------------------------|
A|---------------------------------------------------------------------------|
E|---------------------------------------------------------------------------|

| b  bend
| r  release bend
| /  slide up
| \  slide down
| h  hammer-on
| p  pull-off
| ~  vibrato
| +  harmonic
| x  Mute note
===============================================================================
Comments