Mando Diao - Mr Moon Chords & Tabs

 

Mr Moon Chords & Tabs

Mando Diao Chords & Tabs

Version: 2 Type: Tab 0 ratings
1 star 2 stars 3 stars 4 stars 5 stars
comments

Mr Moon Tab

   
                         Mr moon/Mando diao


intro:
Bm A G E


Bm       A        G        E
Mr moon, mr moon, maybe your time is coming
Bm       A        G                E       
Mr moon, mr moon, what's happening in my room
Bm              A                G                E 
well search a heart, before you die, and let the time fade away
Bm        A            G                E   
it was given, as a promise to each and every man


D                          A
I wanna love you but Iäm growing old
Bm                            G
ten little soldiers screaming in my soul
D                            A
will she come over when it's time to go
Bm                         G
comeon and show me little drummerboy oh no


   Mr moon          mr moon, mr moon
|---------------------------------------------|
|---------------------------------------------|
|---------------------------------------------|
|---------------------------------------------|
|---------------------------------------------|
|----3-3-3-2-1-0---3-3-2-1--------------------|


F# - G - F#, F# - G - F#, F# - G - F# - G


Bm            A             G               E                
sad but true, sad but true, they telling me what to do
Bm               A                G              E
I've learn my lesson, a stupid question, and it hurted my pride
Bm             A              G            E           
but you're a girl, a serious girl, showing me the world
Bm        A             G                  E
oh my love, you're so tired, but you must think quite


D                          A
I wanna love you but Iäm growing old
Bm                            G
ten little soldiers screaming in my soul
D                            A
will she come over when it's time to go
Bm                         G
comeon and show me little drummerboy oh no


   Mr moon          mr moon, mr moon
|---------------------------------------------|
|---------------------------------------------|
|---------------------------------------------|
|---------------------------------------------|
|---------------------------------------------|
|----3-3-3-2-1-0---3-3-2-1--------------------|


F# - G - F#, F# - G - F#, F# - G - F# - G

[ Tab from: http://www.guitartabs.cc/tabs/m/mando_diao/mr_moon_tab_ver_2.html ]
solo:
|---------------------------------------------------------------|
|---------------------------------------------------------------|
|----11-9-7-----7----7-----7-11-11-9-7---7---7------------------|
|-----------9-9--9-9---9-9-------------9---9---9-7-9------------|
|---------------------------------------------------------------|
|---------------------------------------------------------------|

|----------------------------10----10----10----10-12-14-12-10---|
|----------------------10-12----12----12----12------------------|
|------7-9-11-9-7-9-11------------------------------------------|
|----9----------------------------------------------------------|
|---------------------------------------------------------------|
|---------------------------------------------------------------|
                                   mr moon     mr moon, mr moon
|-------------------------------|-------------------------------|
|----12-10-7--------------------|-------------------------------|
|------------10-9---------------|-------------------------------|
|-------------------------------|-------------------------------|
|-------------------------------|-------------------------------|
|-------------------------------|----3-3-3-2-1-0--3-3-2-1-------|


F#...............


D                          A
I wanna love you but Iäm growing old
Bm                            G
ten little soldiers screaming in my soul
D                            A
will she come over when it's time to go
Bm                         G
comeon and show me little drummerboy 
D                         A
I wanna love you but i'm growing old
Bm                            G
ten little soldiers screaming in my soul
D                         A
the day is using up it's final breath
Bm                            G
I've never been so sure I've never doubted you



from the day... to ... doubted you you can play:

|----17171717171717171717171717171717-19191919---------|
|------------------------------------------------------|
|------------------------------------------------------|
|------------------------------------------------------|
|------------------------------------------------------|
|------------------------------------------------------|

|----17171717-15151515-14141414------------------------|
|------------------------------------------------------|
|------------------------------------------------------|
|------------------------------------------------------|
|------------------------------------------------------|
|------------------------------------------------------|


and then the outro


|--------------------------------------------|
|--------------------------------------------|
|--------------------------------------------|
|--------------------------------------------|
|--------------------------------------------|
|----3-3-3-2-1-0--3-3-2-1--------------------|


F# - G - F#, F# - G - F#, F# - G - F# - G - A - B


( when it stands like 111111 0r 12121212 or just 13 or
  something like that it means twelve or eleven or theirteen
  almost everytime and not 1 and 3 or something like that, 
  and the last part with song where you can play both 
  chords and the tabs I have written, there
  you have to play the tab in embalo that means that you
  play it really fast )


by staved
Comments