Mando Diao - Mr Moon Chords & Tabs

 

Mr Moon Chords & Tabs

Mando Diao Chords & Tabs

Version: 1 Type: Tab 0 ratings
1 star 2 stars 3 stars 4 stars 5 stars
comments

Mr Moon Tab

   
I didn't find the solo so I decided to make it by myself . have fun . ses
e|---------------------------------------------------------|
B|---------------------------------7-----------------------|
G|-b11-r9p7-----7-7---7-7---7--b11--r9p7----7---7----------|
D|----------9-9-----9-----9--------------9----9----7/8/9~--|
A|---------------------------------------------------------|
E|---------------------------------------------------------|

[ Tab from: http://www.guitartabs.cc/tabs/m/mando_diao/mr_moon_tab.html ]
e|-----------------------------9---9---9----9-10-12-b14r12-9-9-9----------|
B|----------------------10-b12--b12-b12-b12-----------------------7-------|
G|---7-9-b11r9p7-9-b11----------------------------------------------10-9~-|
D|/9----------------------------------------------------------------------|
A|------------------------------------------------------------------------|
E|------------------------------------------------------------------------|

b=bend
r=release
p=pull off
~=Vibrate
/=slide up
=slide down

Tabbed by Björn Ström
Comments