Mando Diao - Lady Chords & Tabs

 

Lady Chords & Tabs

Mando Diao Chords & Tabs

Version: 1 Type: Chords 0 ratings
1 star 2 stars 3 stars 4 stars 5 stars
comments

Lady Chords

   
-------------------------------------------------------------------------------
			     LADY - MANDO DIAO
-------------------------------------------------------------------------------
Tabbed by:Seor
Email:sverigerocks@hotmail.com

Tuning:standard

intro:
A7 D7 C7 E7  x2

A           D7       C7                E7     A7       D7     C7    E7
  Don't you stumble, turning your head upside down 
A                 D7           C7                 E7         A7   D7  C7  E7
And dont get the feeling that I've been dreaming here all alone


F#m              D             E                   C#m             
  Sell the new dimension to my pal he's in need of help but Im so busy 
F#m               D                    E
  Teach me how to loose my friends and give me the sign of love 'cause 


        A           Bm       C#m
I wont leave 
Bm            A       Bm      C#m     Bm
Leave my own lady
         A    Bm     C#m  Bm           A     Bm    C#m   D-E     
I wont leave    no, no   leave my own lady


A           D7      C7         E7          A7    D7   C7    E7
  Don't you get her tuning her turning her down 
    A             D7               C7            E7             A7  D7  C7  E7
And don't get the feeling that I've been telling lies to my dad

[ Tab from: http://www.guitartabs.cc/tabs/m/mando_diao/lady_crd.html ]
F#m              D             E                   C#m             
  Sell the new dimension to my pal he's in need of help but Im so busy 
F#m               D                     E
  Teach me how to loose my friends and give me the sign of love 'cause 


        A      Bm        C#m
I wont leave, no no no
Bm            A       Bm      C#m     Bm
Leave my own lady
         A    Bm  C#m      Bm           A     Bm    C#m-C#m-Cm     
I wont leave     no, no   leave my own lady


C#                     D
  But the new world is bad
C#                      D         D7    E7  A
  And don't you know my new world turns to  melodies 
Bm          C#m            D             E       A     Bm       C#m     D-E
  Get up now and feel that little bit of love on sunday hey hey oh yeah 
A  Bm        C#m      D-E   A        Bm           C#m       D-E
      Alright come on, come on, come on, darling, come on on, alright, 
      A    Bm    C#m      A(let ring)
      get up get up and get down

Chords used in the song:

   A  A7 D D7 C7 C# C#m E7 E Bm F#m
e|-5--5--5--5--3--4--4--7--7--2--2-------------------------------------------|
B|-5--5--7--7--5--6--5--9--9--3--2-------------------------------------------|
G|-6--6--7--5--3--6--6--7--9--4--2-------------------------------------------|
D|-7--5-7--7--5--6--6--9--9--4--4-------------------------------------------|
A|-7--7--5--5--3--4--4--7--7--2--4-------------------------------------------|
E|-5--5--------------------------2-------------------------------------------|
Comments