Mandatory Death - Going To War Chords & Tabs

 

Going To War Chords & Tabs

Mandatory Death Chords & Tabs

Version: 1 Type: Tab 0 ratings
1 star 2 stars 3 stars 4 stars 5 stars
comments

Going To War Tab

Mandatory Death
Going To War
Standard Tuning

   Intro 1
[---------------------------|
[---------------------------|
[-2------2------6-5-4-------| 3x
[-2------2------6-5-4-------|
[-000000-000000-4-3-2-22222-|
[---------------------------|
   .....  .....       .....

[-------------------------------------------|
[-------------------------------------------|
[-2------2----------------------------------|
[-2------2------452-------------------------|
[-000000-000000-452-------------------------|
[---------------230--000000000000000000000--|
   .....  .....      .....................
   Intro 2/Verses 
[--------------|  [------------------|
[--------------|  [------------------|
[--------------|2x[--------------54--|1x
[-2-------75-3-|  [-2------75-33-54--|
[-2-------75-3-|  [-2------75-33-32--|
[-0000000-5301-|  [-000000-53011-----|
   ......            .....
[ Tab from: http://www.guitartabs.cc/tabs/m/mandatory_death/going_to_war_tab.html ]
    Chorus
[--------------|  [------------------|
[--------------|  [------------------|
[--------------|2x[--------------54--|1x
[-2-------75-3-|  [-2------75-33-54--|
[-2-------75-3-|  [-2------75-33-32--|
[-0000000-5301-|  [-000000-53011-----|
   ......            .....

[-------------|   [---------------------|
[-------------|   [---------------------|
[----------53-|2x [---------------------|1x
[-2-----75-53-|   [-2-----75--5555555---|
[-2-----75-31-|   [-2-----75--5555555---|
[-00000-53----|   [-00000-530-3333333---|
   ....              ....     .......

   Solo
[-----------------------------|
[-----------------------------|
[-----------------------------|4x
[------55-----77--8-00000000--|
[-77777--77777--77------------|
[-----------------------------|

[------------------------------------|
[------------------------------------|
[------------------------------------|
[-777777-10-777777-10-7-8-7-8-7-5-7--|
[------------------------------------|
[------------------------------------|

End On
[------]
[------]
[------]
[-452--]
[-452--]
[-230--]

Comments