Manco Baris - Gulpembe Chords & Tabs

 

Gulpembe Chords & Tabs

Manco Baris Chords & Tabs

Version: 1 Type: Bass Tab 0 ratings
1 star 2 stars 3 stars 4 stars 5 stars
comments

Gulpembe Bass Tab

Gülpembe - Barýþ Manço

Bas :

intro
G|-------------------------------------------------------------|
D|-----------9-7-9----------7-5-7------------------------------|
A|--7~8-5--7-------7~8-5--7-------7~8-5--7---10-9-10--7~8-5--7-|
E|-------------------------------------------------------------|
 \__________________________2 DEFA____________________________/

G|-----------------------------------------------------------------|
D|------------7--7-7-7-7-9-7---------------------------------------|
A|-7--7--9-10----------------10--10-10-10-10-9-7-9--7-9-10-8-7-5-7-|
E|-----------------------------------------------------------------|
 \___1 defa calinacak + sozler baslayinca 2 defa daha calinacak___/

1.)Guz yagmurlariyla...
G|-----------------------------------12-11-12-------------------|
D|------5-7-5-7---5-9-7-9---5-7---------------14-12-14----------|
A|-7~8~5--------7---------5------7---------------------14-12-14-|
E|--------------------------------------------------------------|
 \_____________________2 DEFA__________________________________/

1.)Dudaginda son bir turku...
G|-----------------------------------------------------------------|
D|------------7--7-7-7-7-9-7---------------------------------------|
A|-7--7--9-10----------------10--10-10-10-10-9-7-9--7-9-10-8-7-5-7-|
E|-----------------------------------------------------------------|
[ Tab from: http://www.guitartabs.cc/tabs/m/manco_baris/gulpembe_btab.html ]
G|-----------------------|------------------------7~9-9-9-9-9-12-9------|
D|-----------------------|---------7-7--7-7------------------------12-9-|
A|-7-7---7-7---7-7-7-8-5-|7-7--7-7----------9-9-9-----------------------|
E|-----------------------|----------------------------------------------|
  \____3 DEFA____________+________1 DEFA_______________________________/
\\_____________________2 DEFA___________________________________________//

G|-------------------------|-------------------|
D|-------------------------|-------------------|
A|-7-7--7-7--7-7-7-7-7-8-5-|-5-5--5-5--5-5--5-5|
E|-------------------------|-------------------|
  \__________3 DEFA_______/ \_____2 DEFA______/
\\___________________2 DEFA___________________//

G|-------------------------|------------------|
D|-------------------------|----7-------------|
A|-7-7--7-7--7-7-7-7-7-8-5-|-7-----9----19~~5-|
E|-------------------------|------------------|
 \__________2 DEFA________/

2.)Guz yagmurlariyla...
G|-----------------------------------12-11-12-------------------|
D|------5-7-5-7---5-9-7-9---5-7---------------14-12-14----------|
A|-7~8~5--------7---------5------7---------------------14-12-14-|
E|--------------------------------------------------------------|
 \_____________________2 DEFA__________________________________/

2.)Dudaginda son bir turku...
G|-----------------------------------------------------------------|
D|------------7--7-7-7-7-9-7---------------------------------------|
A|-7--7--9-10----------------10--10-10-10-10-9-7-9--7-9-10-8-7-5-7-|
E|-----------------------------------------------------------------|


                                              by asphyxiater


Comments