Mana - Te Llore Un Rio Chords & Tabs

 

Te Llore Un Rio Chords & Tabs

Mana Chords & Tabs

Version: 2 Type: Chords 0 ratings
1 star 2 stars 3 stars 4 stars 5 stars
comments

Te Llore Un Rio Chords

   
Chords:

E:022100
Dbm:x46654
A:002220
B:224442 or B7:x21202

Intro:

    E             Dbm           A             B7
E:------4------|--7-----4----|------4------|--------4----:
B:----5---5----|----5-----5--|----5---5----|--7-7-----7--:
G:--4-------4--|------4------|--4-------4--|------4------:    3 times
D:-------------|-------------|-------------|-------------:
A:-------------|-------------|-------------|-------------:
E:-------------|-------------|-------------|-------------:   E


VERSE:

                       B7
Yo aqui llorandote un rio

                  Dbm
mandandome al olvido

                B7        E
que cosa mas injusta amor

                       B7
Fuiste matando mis pasiones

                  Dbm
tachando mis canciones

                A
me tenias pisoteado

              B7
estaba desauciado

               Dbm                B7 A
no es justo, no bebe (oh oh eh oh)

PRE-CHORUS:

                       B7
Pero este mundo ya giro

               Dbm                  B7
Y ahora te toco perder (oh oh eh oh)

CHORUS:

 E   Dbm             A    B7     
Bebe, te llore todo un rio

 E   Dbm             A   B7
bebe, te llore a reventar

          E  Dbm           A        B7
oh no no noo, no tienes corazon (ooh)

             E    Dbm
no te vuelvo amar

               A    B7
te llore todo un rio 

               E
ahora llorame un mar

E:------------0-2-4-0--:
B:------0-2-4----------:
G:--1-2----------------:
D:---------------------:
A:---------------------:
E:---------------------:  E

VERSE:

                            B7
Ya no me busques ya es muy tarde

         Dbm
ya tengo otro amor 
[ Tab from: http://www.guitartabs.cc/tabs/m/mana/te_llore_un_rio_crd_ver_2.html ]
             B7                   E
una chula sirena, que nada en mi piel

                         B7
Yo te perdono no hay rencores 

                Dbm
tan solo los dolores

                  A
mi alma esta araniada

                  B7
llore el suelo mojado

            Dbm
no justo, no bebe (oh oh eh oh)

PRE-CHORUS:
CHORUS:
SOLO:

E:-----------------|--7/12-12-12-11-11-11-9--9--9--7---7-7-7-12-11--:
B:-----------------|--9/14-14-14-12-12-12-10-10-10-9---9-9-9-14-12--:
G:------------4-6--|------------------------------------------------:
D:------4-6-7------|------------------------------------------------:
A:--6-7------------|------------------------------------------------:
E:-----------------|------------------------------------------------:

E:----------------7-5-4-------------------------------9-12-11-------:
B:------------4-5-------5-5/7-9-9-9-9-9-9/10-10----10---------------:
G:--------4-6-----------------------------------11------------------:
D:--4-6-7-----------------------------------------------------------:
A:------------------------------------------------------------------:
E:------------------------------------------------------------------:

LAST PART:

    E               Dbm         A             B7
Verdad que un rio te llore, verdad que no te vuelvo amar

         E   Dbm            A      B7
oh no no no, no te vuelvo amar (uh uh uh)

    E               Dbm         A             B7
Verdad que un rio te llore, verdad que no te vuelvo amar

         E       Dbm               A    B7
oh no no noo no, pierdete en tu mar (uh uh uh)

    E               Dbm         A             B7
Verdad que un rio te llore, verdad que no te vuelvo amar

    E                 Dbm   A  B7
y llorame, llorame, llorame.......     (fades out)
Comments