Mana - No Ha Parado De Llover Chords & Tabs

 

No Ha Parado De Llover Chords & Tabs

Mana Chords & Tabs

Version: 1 Type: Bass Tab 0 ratings
1 star 2 stars 3 stars 4 stars 5 stars
comments

No Ha Parado De Llover Bass Tab

Intro:

|-----|------------------|-------------------|
|-----|------------------|---------------2-4-|
|-10\-|-2--2--2----------|-5--5---5----------|
|-----|---------3---3--3-|----------5--5-----|

|---------------------|----------------------|
|---------------------|----------------------|
|-5--5---5------------|-5---5----5-----------|
|----------3--3---3---|------------5--5--5---|

|---------------------|----------------------|
|---------------------|----------------------|
|-2--2---2------------|-5---5----5-----------|
|----------3--3---3---|------------5--5--5---|


Verse 1 
|---------------------|----------------------|
|---------------------|----------------------|
|-5--5---5------------|-2---2----2-----------|
|----------5--5---5---|------------3--3--3---| 

|---------------------|----------------------|
|---------------------|----------------------|
|-5-5-0-5-7-----------|-2---2----2-----------|
|----------5--5---5---|------------3--3--3---|

|---------------------|----------------------|
|---------------------|----------------------|
|-5--5---5------------|-2---2----2-----------|
|----------5--5---5---|------------3--3--3---|

|---------------------|----------------------|
|---------------------|----------------------|
|-5--5---5------------|-5---5----5-----------|
|-----------3--3--3---|------------3--3--3---|

Verse 2
|---------------------|----------------------|
|---------------------|----------------------|
|-5--5---5------------|-2---2----2-----------|
|----------5--5---5---|------------3--3--3---| 

|---------------------|----------------------|
|---------------------|----------------------|
|-5-5-0-5-7-----------|-2---2----2-----------|
|----------5--5---5---|------------3--3--3---|

|---------------------|----------------------|
|---------------------|----------------------|
|-5--5---5------------|-2---2----2-----------|
|----------5--5---5---|------------3--3--3---|

|---------------------|----------------------|
|---------------------|----------------------|
|-5--5---5------------|-5--5---5-4-4-4-4-5-4-|
|----------3--3--3----|----------------------|

Coro 1
|---------------------|----------------------|
|---------------------|----------------------|
|-2---2---2-----------|----------------------|
|-----------3--3--3---|-5---5---5--2--2--2---|

|---------------------|----------------------|
|---------------------|----------------------|
|-2---2---2-----------|-5--5---5-4-4-4-4-5-4-|
|-----------3--3---3--|----------------------|

|---------------------|----------------------|
|---------------------|----------------------|
|-2---2---2-----------|----------------------|
|-----------3--3--3---|-5---5---5--2--2--2---|

|---------------------|----------------------|
|---------------------|----------------------|
|---------------------|----------------------|
|-3-3--3-33--33-3-3---|-3-3--3-33--33-3-3----|


Coro 2
|---------------------|----------------------|
|---------------------|----------------------|
|-5--5---5------------|-5---5----5-----------|
|----------3--3---3---|------------5--5--5---|

|---------------------|----------------------|
|---------------------|----------------------|
|-2--2---2------------|-5---5----5-----------|
|----------3--3---3---|------------5--5--5---|


Verse 3

|---------------------|----------------------|
|---------------------|----------------------|
|-5--5---5------------|-2---2----2-----------|
|----------5--5---5---|------------3--3--3---| 
[ Tab from: http://www.guitartabs.cc/tabs/m/mana/no_ha_parado_de_llover_btab.html ]
|---------------------|----------------------|
|---------------------|----------------------|
|-5-5-0-5-7-----------|-2---2----2-----------|
|----------5--5---5---|------------3--3--3---|

|---------------------|----------------------|
|---------------------|----------------------|
|-5-5-0-5-7-----------|-2---2----2-----------|
|----------5--5---5---|------------3--3--3---|

|---------------------|----------------------|
|---------------------|----------------------|
|-5--5---5------------|-2---2----2-----------|
|----------5--5---5---|------------3--3--3---| 

|---------------------|----------------------|
|---------------------|----------------------|
|-5--5---5------------|-5--5---5-4-4-4-4-5-4-|
|----------3--3--3----|----------------------|

Coro 1
|---------------------|----------------------|
|---------------------|----------------------|
|-2---2---2-----------|----------------------|
|-----------3--3--3---|-5---5---5--2--2--2---|

|---------------------|----------------------|
|---------------------|----------------------|
|-2---2---2-----------|-5--5---5-4-4-4-4-5-4-|
|-----------3--3---3--|----------------------|

|---------------------|----------------------|
|---------------------|----------------------|
|-2---2---2-----------|----------------------|
|-----------3--3--3---|-5---5---5--2--2--2---|

|---------------------|----------------------|
|---------------------|----------------------|
|---------------------|----------------------|
|-3-3--3-33--33-3-3---|-3-3--3-33--33-3-3----|


Coro 2
|---------------------|----------------------|
|---------------------|----------------------|
|-5--5---5------------|-5---5----5-----------|
|----------3--3---3---|------------5--5--5---|

|---------------------|----------------------|
|---------------------|----------------------|
|-2--2---2------------|-5---5----5-----------|
|----------3--3---3---|------------5--5--5---|


Interlude
|---------------------|----------------------|
|---------------------|----------------------|
|---------------------|----------------------|
|-3-33-3-33-3-33-3-33-|3-33-33-3-33-3-33-3-33|

|---------------------|----------------------|
|---------------------|----------------------|
|---------------------|----------------------|
|-3-33-3-33-3-33-3-33-|3-33-33-3-33-3-33-3-33|

|---------------------|----------------------|
|---------------------|----------------------|
|-5-55-5-55-5-55-5-55-|----------------------|
|---------------------|3-33-33-3-33-3-33-3-33|

|---------------------|----------------------|
|---------------------|----------------------|
|-5-55-5-55-5-55-5-55-|----------------------|
|---------------------|3-33-33-3-33-3-33-3-33|

|---------------------|----------------------|
|---------------------|----------------------|
|-5-55-5-55-5-55-5-55-|----------------------|
|---------------------|3-33-33-3-33-3-33-3-33|

|---------------------|----------------------|
|---------------------|----------------------|
|---------------------|----------------------|
|-5-55-5-55-5-55-5-55-|-5-55-5-55-5-55-5-55--|


Coro 2
|---------------------|----------------------|
|---------------------|----------------------|
|-5--5---5------------|-5---5----5-----------|
|----------3--3---3---|------------5--5--5---|

|---------------------|----------------------|
|---------------------|----------------------|
|-2--2---2------------|-5---5----5-----------|
|----------3--3---3---|------------5--5--5---|


End
|---------------------|----------------------|
|---------------------|----------------------|
|-5---5--5-2--2---2---|----------------------|
|---------------------|-5--5----5-3--3-3-----|

->any comments write me at silvestrefmf_27@hotmail.com
Comments