Man Down - Lost Chords & Tabs

 

Lost Chords & Tabs

Man Down Chords & Tabs

Version: 1 Type: Tab 0 ratings
1 star 2 stars 3 stars 4 stars 5 stars
comments

Lost Tab

   
e:---------------------------------------------------       REPEAT 4 TIMES
B:---------------------------------------------------
G:---------------------------------------------------
D:---------------------------------------------------
A:---------------------------------------------------
E:--00--333------5-------------------------------

TEN PLAY THESE CORDS
E	GGG		A/D/A  PLAY 4 TIMES

THEN BASS SOLO
e---0---7--0---5---0---3--0---5---0	PLAY DURING GUITAR SOLO
[ Tab from: http://www.guitartabs.cc/tabs/m/man_down/lost_tab.html ]
GUITAR SOLO
e:---12----15P12---------------------------------------------
B:--------------------B15---12--------------------------------
G:-----------------------------------B14----12----------------
D:------------------------------------------------------14-------
A:----------------------------------------------------------------
E:----------------------------------------------------------------

e:---0---3P0---------------------------------------------------------
B:---------------B3----0---------------------------------------------
G:---------------------------B2----0---------------------------------
D:--------------------------------------------2------------------------
A:----------------------------------------------------------------------
E:----------------------------------------------------------------------

e:-7-7-7-7------5-5-5-5----3-3-3-3--0-0-0-0----	PLAY 4 TIMES 
B:--------------------------------------------------------
G:--------------------------------------------------------
D:--------------------------------------------------------
A:--------------------------------------------------------
E:--------------------------------------------------------

THEN HIT OPEN e
Comments