Man - Te Llevare Al Cielo Chords & Tabs

 

Te Llevare Al Cielo Chords & Tabs

Man Chords & Tabs

Version: 1 Type: Bass Tab 0 ratings
1 star 2 stars 3 stars 4 stars 5 stars
comments

Te Llevare Al Cielo Bass Tab

song:te llevare al cielo
artist:maná
album:eclipse
transcribed by júan
tabbed by trpelonchaspunk

                            "TE LLEVARE AL CIELO"


INTRO
G------------------------------------------------------|
D-13h14mantenernota-16-17-16---------------------------|
A-----------------------------16-17-16h17-14-----------|
E------------------------------------------------------|


  1st verse
G-----------------------------------------------------------|
D-----------------------------------------------------------|
A-7--7-5-7--7-7--7-5h7--7-7-----------------------------5-7-|
E---------------------------7--7-7--5h7-7-7-7-777-57-77-----|

G--------------------------------------------------------------|
D------------------------------------------------------999-7-9-|
A-7--7-5-7--7-7--7-5h7--7-7------------------------------------|
E---------------------------7--7-7--5h7-7-7-7-777-57-7---------|


G----------------------------------|
D-9h12-9-10------------------------|
A----------------------------------|
E----------------------------------|

[ Tab from: http://www.guitartabs.cc/tabs/m/man/te_llevare_al_cielo_btab.html ]
  CHORUS
G-----4----------------------------|
D---5-----2--5---4--7---4----------|
A-7-----3------5------2---5--------|
E----------------------------------|

G-----4---------------------------|
D---5-----2--5---4--7--4h5-2h3----|
A-7-----3------5------------------|
E---------------------------------|

Interlude
G---------------------------------|
D---------------------------------|
A-777-33-3---5-5---2--------------| X2
E---------------------------------|


G--------------------------------------|
D--------------------------------------|
A-------7-5-7--7-7-5-7-7-7-7-5h7-7-77--|
E-7-5-7--------------------------------|

G-----4----------------------------|
D---5-----2--5---4--7---4----------|
A-7-----3------5------2---5--------|
E----------------------------------|

G-----4---------------------------|
D---5-----2--5---4--7--4h5-2h3----|
A-7-----3------5------------------|
E---------------------------------|

í´m oscar or trpelonchaspunk please send me your comments to maxz6@hotmail.com or my 
fan mail orta_fanmail@yahoo.com.mx
please rate this tab ok thank´s and byke!
Comments