Mamas And The Papas - California Dreaming Chords & Tabs

 

California Dreaming Chords & Tabs

Mamas And The Papas Chords & Tabs

Version: 4 Type: Tab 0 ratings
1 star 2 stars 3 stars 4 stars 5 stars
comments

California Dreaming Tab

   
-------------------------------------------------------------------------------
			     California Dreaming (Intro) - Mamas and the Papas
-------------------------------------------------------------------------------
Tabbed by: David Giles (UK)
Email: dgiles@talk21.com

Tuning: Standard EADGBE

Hi,
[ Tab from: http://www.guitartabs.cc/tabs/m/mamas_and_the_papas/california_dreaming_tab_ver_4.html ]
Here is my first tab, and it's just the intro to this classic song.  I was playing
around with this tab whilst learning Street Spirit (Fade Out) by Radiohead, so if
you know that song, position your fingers as you would with the Am variation in that.
If you don't know it then all you do is create an Am ( 0 0 2 2 1 0) and have your
little finger ready over the 3rd fret of B - simple :) !  Any feedback would be
appreciated.  Here's the tab.  

e|-----------0-1-0-----------------------------------------------------------|
B|---0-3-1-0-------3-1--------0--3-1-----------------------------------------|
G|--2-2----------------------2-2-----4-2-------------------------------------|
D|-2------------------------2------------------------------------------------|
A|---------------------------------------------------------------------------|
E|---------------------------------------------------------------------------|

| /  slide up
| \  slide down
| h  hammer-on
| p  pull-off
| ~  vibrato
| +  harmonic
| x  Mute note
===============================================================================
Comments