Mamas And The Papas - California Dreaming Chords & Tabs

 

California Dreaming Chords & Tabs

Mamas And The Papas Chords & Tabs

Version: 2 Type: Tab 0 ratings
1 star 2 stars 3 stars 4 stars 5 stars
comments

California Dreaming Tab

This is a very easy solo to play, ive just written how things should be played...but the most 
important is the feeling you have when you play it!

Enjoy...

Any comments or questions can be send to "eraser49@hotmail.com"

E------------------------------------------------------------------------------------------------
B-------6--------5----6----8-------6---5--6------5--6---8-----6-------------------------------
G---------------------------------------------------------------------7------5--6--7------------
D------------------------------------------------------------------------------------------------
A------------------------------------------------------------------------------------------------
E------------------------------------------------------------------------------------------------
[ Tab from: http://www.guitartabs.cc/tabs/m/mamas_and_the_papas/california_dreaming_tab_ver_2.html ]
E----6----------6------5------------------5----------------------------------------------------
B---------------------------------------5-------------9-------6------8--------------------------
G----------------------------------6-----------------------------------------7------------------
D------------------------------------------------------------------------------------------------
A------------------------------------------------------------------------------------------------
E------------------------------------------------------------------------------------------------

E------------------------------------5------------------------5------8---5-----------5----------
B-----9------6------8------------------------8----5---8----------------------8------------9----
G----------------------------7-------------------------------------------------------------------
D------------------------------------------------------------------------------------------------
A------------------------------------------------------------------------------------------------
E------------------------------------------------------------------------------------------------

E-------------5---------------------------------5----5------------------------------------------
B-----6---------------6----9-----8------6--------------8--8--5---5---------------------------
G---------------------------------------------------------------------6---6---------------------
D-----------------------------------------------------------------------------8----8------7-----
A------------------------------------------------------------------------------------------------
E------------------------------------------------------------------------------------------------

Comments