Malmsteen Yngwie - Far Beyond The Sun (g3 Version) Chords & Tabs

 

Far Beyond The Sun (g3 Version) Chords & Tabs

Malmsteen Yngwie Chords & Tabs

Version: 1 Type: Tab 0 ratings
1 star 2 stars 3 stars 4 stars 5 stars
comments

Far Beyond The Sun (g3 Version) Tab

   
		Yngwie Malmsteen - Far Beyond the Sun ( G3 Version)
Transcribed By : Simon Schuster

Gtr I (D# G# C# F# A# D#) - 'lead'
Gtr II (D# G# C# F# A# D#) - 'keyboard'
Gtr III (D# G# C# F# A# D#) - 'fx'
Gtr IV (D# G# C# F# A# D#) - 'Untitled'
Gtr V (D# G# C# F# A# D#) - 'Untitled'
Gtr VI (D# G# C# F# A# D#) - 'organ keyboard'

  Q=163
 4/4
  Gtr I
                   ~~~~~~        ~~~~~~
           |-3-|         |-3-|         |-3-|     |-3-|   |-3-|
  H    Q   E E E   H +Q  E E E   H +Q  E E E   Q E E E Q E E E
|----------------|-------------|-------------|--------------------|
|----------------|-------------|-------------|--------------------|
|----------------|-------------|-------------|-----------6-6-6----|
|----------4-4-4-|-3-(3)-6-6-6-|-4-(4)-7-7-7-|-6-9-9-9-8----------|
|----------------|-------------|-------------|--------------------|
|----------------|-------------|-------------|--------------------|
|
| Gtr VI
| H      H         W                     W                 W
|----------------|-------------|-------------|--------------------|
|----------------|-------------|-------------|--------------------|
|----------------|-------------|-------------|--------------------|
|----------------|-------------|-------------|--------------------|
|----------------|-------------|-------------|--------------------|
|----------------|-------------|-------------|--------------------|


                                                    Q=180
  ~~~~~~                ~                 ~
        |-3-|     |-3-|   |-3-|     |-3-|   |-3-|   |------3------|
  H +Q  E E E   Q E E E Q E E E   Q E E E Q E E E   Q Q  Q  Q  Q  Q
|-------------|-----------------|-----------------|------------------|
|-------------|-----------------|-----------------|------------------|
|-7-(7)-------|---------6-------|---------4-------|------------------|
|-------7-7-7-|-6-6-7-9---6-6-6-|-4-4-6-7---4-4-4-|-6-3--------------|
|-------------|-----------------|-----------------|------5--2--------|
|-------------|-----------------|-----------------|------------4--1--|
|
| W                   W                 W                W
|-------------|-----------------|-----------------|------------------|
|-------------|-----------------|-----------------|------------------|
|-------------|-----------------|-----------------|------------------|
|-------------|-----------------|-----------------|------------------|
|-------------|-----------------|-----------------|------------------|
|-------------|-----------------|-----------------|------------------|


                            Q=190
  |----------3----------|
  E E E E E E E E E E E E   Q  H    Q    H     E  +T. S S +T  E +T.
|-------------------------|------------|-------------------------------|
|-------------------------|------------|-------------------------------|
|-------------------------|------------|-------------------------------|
|-------------------------|-4----------|------11-(11)------------------|
|-------2-4-5-4-2---------|-4----------|--------------9-9-(9)----------|
|-2-4-5-----------5-4-2-1-|-2----------|----------------------9-(9)----|


  Q=174
   |------------------------3-------------------------|
   Q  S  S  S  S  S  S  S  S  S  S  S  S  S  S  S  S  S S  S
|----------10-13-14-16-14-13-10------------------------------|
|----12-14----------------------14-12-10---------------------|
|-11-------------------------------------13-11-10------------|
|-------------------------------------------------12-11-9----|
|---------------------------------------------------------12-|
|------------------------------------------------------------|


         ~
   S. S. Q E. E. S E
|-----------------------|
|-----------------------|
|-----------------------|
|-----------------------|
|-11--9--8-0------------|
|-------------9--9-x----|


   |----------------------3----------------------|
   S.  S  S  S  S  S  S  S  S  S  S  S  S  S  S  S  S S  S  S S
|--------10-13-14-16-14-13-10-----------------------------------|
|-12--14----------------------14-12-10--------------------------|
|--------------------------------------13-11-10-----------------|
|-----------------------------------------------12-11-9---------|
|-------------------------------------------------------12-11-9-|
|---------------------------------------------------------------|


  Q +S   S  +Q   E  Q
|------------------------|
|------------------------|
|-------------------6----|
|-------------------6----|
|-8-(8)s15-(15)s=3--4----|
|------------------------|


      |-----------------------3-----------------------|
  E.  S.  S.  S.  S.  S.  S.  S.  S.  S.  S.  S.  S.  S.
|--------------------------------------------------------|
|----12--15--12------15--18--15------18--21--18------18--|
|-7--------------13--------------16--------------19------|
|-7------------------------------------------------------|
|-5------------------------------------------------------|
|--------------------------------------------------------|


          |-----------------------3-----------------------|
   S. S.  S.  S.  S.  S.  S.  S.  S.  S.  S.  S.  S.  S.  S.
|-19s21--19--21--17--21--16--21--19--21--17--21--16--21---------|
|--------------------------------------------------------19-----|
|---------------------------------------------------------------|
|---------------------------------------------------------------|
|---------------------------------------------------------------|
|---------------------------------------------------------------|


   |-------------------3-------------------|
   S..  S.  S.  S  S..  S.  S.  S.  S.  S  E..  S.  S.  S
|-21---21--17-----21---21--17--21--17-----21\-------------|
|--------------19----------------------19------19--17--15-|
|---------------------------------------------------------|
|---------------------------------------------------------|
|---------------------------------------------------------|
|---------------------------------------------------------|


   /0.5________________________|
   Q.       Q     +S.      Q   T
|------------------------------------|
|-21-------21----(21)\---------------|
|--------------------------0--(0)----|
|------------------------------------|
|------------------------------------|
|------------------------------------|


            ~~
  E E E S.. S. S. S. S.. E   E E E E E  E  Q     +W          +W
|--------------------------|-------------------|-----------|--------|
|--------------------------|-------------------|-----------|--------|
|-----------------2--1---2-|-6-5-6-5-----------|-----------|--------|
|-----4-4---5--4-----------|-------------------|-----------|--------|
|-0s9----------------------|--------------(0)--|-(0)-------|-(0)----|
|--------------------------|---------5s13--0---|-(0)-------|-(0)----|


  W          H    Q  E  S  S
|----------|-----------21-17-|
|----------|-----------------|
|----------|-----------------|
|----------|-----------------|
|----------|-----------------|
|----------|-----------------|


   S  S  S  S  S  S  S  S  S  S  S  S  S  S  S  S
|-21-19-17-16-19-17-14-17-16-14-13----------------|
|----------------------------------15-14-12-------|
|-------------------------------------------14-13-|
|-------------------------------------------------|
|-------------------------------------------------|
|-------------------------------------------------|


   S  S  S  S S  S  S S S  S S.  S. S. S.
|--------------------------------------------|
|--------------------------------------------|
|-11-10--------------------------------------|
|-------12-11-8------------------------------|
|---------------12-11-9-8-----------9--------|
|-------------------------10-9--10-----9-----|


   S  S  S  S  S  S  S  S  S  S  S  S  S  S  S  S
|----------------------------------------------17-|
|-------------------------------------17-19-21----|
|----------------------------16-18-19-------------|
|-------------------16-18-19----------------------|
|----------16-17-19-------------------------------|
|-16-17-19----------------------------------------|


   S  S  S  S  S  S  S  S  S  S  S  S  S  S  S  S
|-19-21-19-17-21-19-17-16-19-17-16-14-17-16-14-12---|
|---------------------------------------------------|
|---------------------------------------------------|
|---------------------------------------------------|
|---------------------------------------------------|
|---------------------------------------------------|


   S  S  S  S  S  S  S  S  S  S  S  S S  S  S S
|-14-12----------16----------14---------12------|
|-------15-14-12----14-12-10----12-10-9----10-9-|
|-----------------------------------------------|
|-----------------------------------------------|
|-----------------------------------------------|
|-----------------------------------------------|


   S  S  S  S  S  S  S  S  S  S S  S  S  S  S S
|-14----------------------------------------------|
|----15-14-12-14-12-10----12-10-9-----------------|
|----------------------13---------11-11-13-11-9---|
|-------------------------------------------------|
|-------------------------------------------------|
|-------------------------------------------------|


                                                                     ~~~
   E  +T   S. S. E S. E   +S.   E +S.   S  S  S.  S  S  S  S  S  S.  E.  E.
|-------------------------------------|------16--17-16-17-16-17s21--21--17--|
|-10-(10)-10-----9----7b9r(7)b9r7-(7)-|-7s19--------------------------------|
|-------------7----7------------------|-------------------------------------|
|-------------------------------------|-------------------------------------|
|-------------------------------------|-------------------------------------|
|-------------------------------------|-------------------------------------|


   S  S  S  S  S  S  S  S  S  S  S  S  S  S  S  S
|-21-19-17-19-17-16-14-17-16-14-13-16-14-13-------|
|-------------------------------------------15-14-|
|-------------------------------------------------|
|-------------------------------------------------|
|-------------------------------------------------|
|-------------------------------------------------|


   S  S  S  S  S  S  S S  S  S S S +T   S  +S. S
|--------------------------------------------------|
|-12-----------------------------------------------|
|----14-13-11-10-----------------------------------|
|----------------12-11-9---------------------------|
|------------------------12-11-9-8-(8)s16-(16)s4---|
|--------------------------------------------------|


   ~~~
           |-3-|             |-3-|
   H.      E E E   H.        E E E
|----------------|-----------------|
|----------------|-----------------|
|-/7-------6-----|-----------------|
|------------9-7-|-6tr7------6-7-9-|
|----------------|-----------------|
|----------------|-----------------|


  |----------3----------|
  E E E E E E E E E E E E   Q     Q      Q     Q
|-------------------------|-------9tr10--------9tr10--|
|-------------------------|---------------------------|
|-----------6---------6-7-|-6tr7---------6tr7---------|
|-7-7-7-7-9---9-9-9-9-----|---------------------------|
|-------------------------|---------------------------|
|-------------------------|---------------------------|


                                           ~
           |-3-|   |----------3----------|
   H.      E E E   S S S S S S S S S S S S H
|----------------|------------------------------|
|----------------|------------------------------|
|-/7-------6-----|-------6-----------6----------|
|------------9-7-|-6-7-9---9-7-6-7-9---9-7-6----|
|----------------|------------------------------|
|----------------|------------------------------|


  |--------3--------|     |----3----|     |-3-|
  S.  S S S  S S S  S S S S  S S S  S S S S S S S
|-9--10-9-7---------------------------------------|
|-----------10-9-7-10-----9-10-9-7--------9-7-6---|
|---------------------7-6----------10-7-6-------9-|
|-------------------------------------------------|
|-------------------------------------------------|
|-------------------------------------------------|


                    /1____________|
      |-3-|
  S S S S S S  S   +Q     +Q     +E
|--------------()--()--()--|
|--------------------------------------|
|-7-6----------------------------------|
|-----9-7-6----------------------------|
|-----------9--7---(7)-----------------|
|--------------------------------------|


   ~~~
           |-3-|             |-3-|
   H.      E E E   H.        E E E
|----------------|-----------------|
|----------------|-----------------|
|-/7-------6-----|-----------------|
|------------9-7-|-6tr7------6-7-9-|
|----------------|-----------------|
|----------------|-----------------|


  |----------3----------|
  E E E E E E E E E E E E   Q     Q      Q     S. S.S
|-------------------------|-------9tr10--------9s12s0---|
|-------------------------|-----------------------------|
|-----------6---------6-7-|-6tr7---------6tr7-----------|
|-7-7-7-7-9---9-9-9-9-----|-----------------------------|
|-------------------------|-----------------------------|
|-------------------------|-----------------------------|


           |-3-|   |----3----|
   H.      E E E   E E E E E E H
|----------------|---------------------|
|----------------|---------------------|
|-/7-------6-----|-------6-------------|
|------------9-7-|-6-7-9---9-7-6tr7----|
|----------------|---------------------|
|----------------|---------------------|


  |---------------------------------3----------------------------------|
  S  S  S  S  S  S  S  S  S  S  S  S  S  S  S  S  S  S  S  S  S  S  S  S
|---------------------------------12-------12-14----12-14-16-12-14-16-17-|
|-9-10-12-14-10-12-14-15-12-14-15----14-15-------15----------------------|
|------------------------------------------------------------------------|
|------------------------------------------------------------------------|
|------------------------------------------------------------------------|
|------------------------------------------------------------------------|


   |---------3---------|
   S  S  S  S  S.  S.  E  S. S.S Q.
|-14-16-17-19-16--17--19-19s21S2-------|
|--------------------------------------|
|--------------------------------------|
|--------------------------------------|
|--------------------------------------|
|--------------------------------------|


   ~~         ~~           ~~
   Q  Q   Q   Q    Q   Q   Q  Q     Q       Q   E  S  S Q
|----------------|---------------|--------------------------|
|-----9--10------|-9--10--12--9--|-12b14===12r=10-12-10-9---|
|-11---------11--|---------------|--------------------------|
|----------------|---------------|--------------------------|
|----------------|---------------|--------------------------|
|----------------|---------------|--------------------------|


   ~~
   W          H       Q  S  S S  S
|-----------|----------------------|
|-10--------|-9b10----9-------9-10-|
|-----------|------------9-11------|
|-----------|----------------------|
|-----------|----------------------|
|-----------|----------------------|


   |--3---|      |---3---|  |--3---|  |--3---|   |-3-|
   S  S.  S.  S  S.  S.  S  S.  S. S  S.  S. S.  S.  S. E
|-12-14--12--10--------------------------------------------|
|---------------14--12--10---------------------------------|
|--------------------------13--11--9-----------------------|
|------------------------------------12--11--9-------------|
|-----------------------------------------------12--11--9--|
|----------------------------------------------------------|


   ~~         ~~           ~~
                                   |--------------3---------------|
   Q  Q   Q   Q    Q   Q   Q  Q    E  E  E  E  E  E  E  E  E E  E E
|----------------|--------------|--------------------------------------|
|-----9--10------|-9--10--12--9-|-14-15-14-12-14-12s10-12-10-9-12-9----|
|-11---------11--|--------------|--------------------------------------|
|----------------|--------------|--------------------------------------|
|----------------|--------------|--------------------------------------|
|----------------|--------------|--------------------------------------|


   ~~               ~~~~
   W    H     Q Q   W
|-----|-----------|-----------|
|-10--|-9b10--9---|-----------|
|-----|---------9-|-9b11------|
|-----|-----------|-----------|
|-----|-----------|-----------|
|-----|-----------|-----------|


                                           ~~~~~~~~~
                                 |----3----|
  +S      E. E. E.  E.  E.    S  Q..  E E  Q..  +E.
|--------------------------|---------------------------|
|---------9--9--9--10--12--|-10s12---10-9-10---(10)----|
|-(9)pb11r=================|===========================|
|--------------------------|---------------------------|
|--------------------------|---------------------------|
|--------------------------|---------------------------|


                         ~~~~~~~~~~~~~~~~~~~~~~
    |-------3-------|
   +Q   Q  Q  Q  Q  Q    H     H       H     H
|---------------------|-------12----|-------------|
|-(10)-12-12-12-14-15-|-14----------|-15----12----|
|---------------------|-------------|-------------|
|---------------------|-------------|-------------|
|---------------------|-------------|-------------|
|---------------------|-------------|-------------|


                                     ~~~~
   |------3-------|  |--3--|
   S  S  S  S  S  S  E  E  E  E  E  +Q
|-----------------------------------------|
|-14-12-14-12-14-12-14-15-14-14s10-(10)---|
|-----------------------------------------|
|-----------------------------------------|
|-----------------------------------------|
|-----------------------------------------|


   T.  T.  T  T  T.  T.  T.  T.  T.  T.  T.  T.  T.  T.  T.  T.  T.  T.  T.  T.  T.  T.
|---------17-19-21--19--17--16--19--17--16--14--17--16--14--13--16--14--13--------------|
|-19--21--------------------------------------------------------------------15--18--15--|
|---------------------------------------------------------------------------------------|
|---------------------------------------------------------------------------------------|
|---------------------------------------------------------------------------------------|
|---------------------------------------------------------------------------------------|


   T.  T.  T.  T.  T  S.  H    E.
|----------------------------------|
|-18--15--14-----------------------|
|-------------16--14-13------------|
|----------------------------------|
|------------------------12s===0---|
|------------------------12s===0---|


                  ~~              ~        ~          ~~
          |-3-|           |-3-|      |-3-|    |-3-|      |-3-|
  H.      E E E   H.      E E E   Q  E E E Q  E E E   H. E E E
|---------------|---------------|-------------------|------------|
|---------------|---------------|-------------------|------------|
|-6-------------|---------------|-----------------6-|-7----------|
|-6-------------|-4-------7-7-7-|-6--9-9-9-8--8-9---|----7-7-7---|
|-4-------4-4-4-|---------------|-------------------|------------|
|---------------|---------------|-------------------|------------|


  ~        ~                      ~
     |-3-|    |-3-|   |-3-| |-3-|    |-3-|   |----3----|
  Q  E E E Q  E E E   E E E E E E Q  E E E   Q Q Q Q Q Q
|-------------------|----------------------|-------------|
|-------------------|----------------------|-------------|
|----------6--------|-------------4--------|-------------|
|-6--6-7-9----6-6-6-|-4-4-4-4-6-7----4-4-4-|-6-3---------|
|-------------------|----------------------|-----5-2-----|
|-------------------|----------------------|---------4-1-|


    |----------3----------|     |----------3----------|
    E E E E E E E E E E E E     E E E E E E E E E E E E
||---------------------------||--------------------------|
||o-------------------------o||--------------------------|
||---------------------------||--------------------------|
||---------------------------||--------------------------|
||o-------2-4-5-4-2---------o||-------2-4-5-4-2-------9--|
||--2-4-5-----------5-4-2-1--||-2-4-5-----------5-4-2----|


   |---------------3----------------|
   E  E  E  E  E  E  E  E  E  E  E  E
|-------------------------------------|
|----------------------13-10-10-12-14-|
|-------------------11----------------|
|-------------10-12-------------------|
|-10-12-11-12-------------------------|
|-------------------------------------|


   H     Q.    E    E.  S  S  S  S  S  H
|----------------|--------------------------|
|-15----12----14-|-15--15-17-15-14----------|
|----------------|-----------------16-14----|
|----------------|--------------------------|
|----------------|--------------------------|
|----------------|--------------------------|


   Q.       E  E. E.  S  S    Q   Q   Q   Q
|--------------------------|-----------------|
|--------------------------|-----------------|
|-13b14====13-13r11--13-11-|-10--11--13--10--|
|--------------------------|-----------------|
|--------------------------|-----------------|
|--------------------------|-----------------|


   S  E  S  S. S  S  S  E  S  S  S  S.  S
|-17p16p14h17p16h17p16p14----------14-----|
|-------------------------14h16h18-----14h|
|-----------------------------------------|
|-----------------------------------------|
|-----------------------------------------|
|-----------------------------------------|


   |----------------------------3-----------------------------|
   S..  S  S  S. S..  S..  S. S  S  S. S..  S..  S. S  S   S. S..
|------18p16p14h21p==14h==16h18p16p14h21p==14h==16h18p16p=14h21p=====|
|-16-----------------------------------------------------------------|
|--------------------------------------------------------------------|
|--------------------------------------------------------------------|
|--------------------------------------------------------------------|
|--------------------------------------------------------------------|


   |-----------------------3------------------------|
   S  S. S. S. S  S..  S  S.  S. S. S  S.  S. S. S  S.   T   S    +W
|-14h16h18p16p14h18p==14-----18p16p14-----18p16p14--------------|--------|
|------------------------14-----------14-----------14-----------|--------|
|---------------------------------------------------------------|--------|
|---------------------------------------------------------------|--------|
|---------------------------------------------------------------|--------|
|------------------------------------------------------(14)s(0)-|-(0)----|


         |---3---|   |-3-|
  S. +S  E E E E H  +S. +E  +T    +H     E Q.
|-------------------------------|---------------|
|-------------------------------|---------------|
|-------------------------------|---------------|
|-4--(4)-4-------4--(4)-(4)-(4)-|-(4)----4-2----|
|-4--(4)-4-------4--(4)-(4)-(4)-|-(4)----4-2----|
|-2--(2)-2-2-2-2-2--(2)-(2)-(2)-|-(2)----2-0----|


  W          +H     S S S S S S S S
|----------|--------------------------|
|----------|--------------------------|
|-7--------|-(7)----------------------|
|-7--------|-(7)--------------4-2-0---|
|-5--------|-(5)----4-0-4-0-4---------|
|----------|--------------------------|


  S. S S S S S S. S S S S S S. S.   S S S S S S S S S S E Q
|---------------------------------|--------------------------|
|---------------------------------|--------------------------|
|---------------------------------|--------------------------|
|--------------4--2-4-2-4-2-4--2--|-4-2-4-2-4-2-4-2-4-2-4-2--|
|-4--2-4-2-4-2--------------------|--------------------------|
|---------------------------------|--------------------------|


                    |--3--| |3-|
  W          +H     E E E E E +E
|----------|----------------------|
|----------|----------------------|
|-7--------|-(7)------------------|
|-7--------|-(7)------------------|
|-5--------|-(5)----4s5s4-7-4-(4)-|
|----------|----------------------|


  H.      Q    +W           W          +W
|------------|------------|----------|--------|
|------------|------------|----------|--------|
|------------|------------|-7--------|-(7)----|
|-4-------4--|-(4)--------|-7--------|-(7)----|
|-4-------4--|-(4)--------|-5--------|-(5)----|
|-2-------2--|-(2)--------|----------|--------|


  |----3----|
  E E E E E E H      H    +S  Q.   +S    W
|------------------|-------------------|------|
|------------------|-------------------|------|
|------------------|-------------------|-7----|
|-------------4----|-4----(4)-2----(2)-|-7----|
|-4-4-4-4-4-4-4----|-4----(4)-2----(2)-|-5----|
|-2-2-2-2-2-2-2----|-2----(2)-0----(0)-|------|


   |--------3--------|    |--------3--------|
   E  E  Q  Q  Q  Q  Q    E  E  Q  Q  Q  Q  Q
|----------------------|----------------------|
|----------------------|----------------------|
|-13s14-13----------13-|-13s14-13----------13-|
|----------16-15-16----|----------16-15-16----|
|----------------------|----------------------|
|----------------------|----------------------|


  Q=183
                       |-----------------3-----------------|
   S.  S  S  S.  S  S  S.  S  S  S  S  S  S.  S  S  S.  S  S
|----------------------------------------16--13-14-16--14-13-|
|---------------------15--12-14-15-14-12---------------------|
|-13--14-11-13--13-13----------------------------------------|
|------------------------------------------------------------|
|------------------------------------------------------------|
|------------------------------------------------------------|


   |------------------------3-------------------------|
   S  S  S  S  S  S  S  S  S  S  S  S  S  S  S  S  S  S  E E
|-17-14-16-17-16-14-19-14-16-17-16-14-21-14-16-17-16-14-21s9-|
|------------------------------------------------------------|
|------------------------------------------------------------|
|------------------------------------------------------------|
|------------------------------------------------------------|
|------------------------------------------------------------|


       ~~~                                          ~~
                |--3--|    |--3---|   |------3------|
  +E   Q.  +Q   E  E  E    Q      Q  +Q   Q      Q  Q
|-(9)s21--(21)-21-21-21-|-21b22==21r(21)-21b25==21r21-|
|-----------------------|-----------------------------|
|-----------------------|-----------------------------|
|-----------------------|-----------------------------|
|-----------------------|-----------------------------|
|-----------------------|-----------------------------|


   S.  S.  S  S  S  S  S  S  S  S  S  S  S  S  S
|-21--19--21-17-21-16-21-19-21-17-21-16-21----21----|
|------------------------------------------19-------|
|---------------------------------------------------|
|---------------------------------------------------|
|---------------------------------------------------|
|---------------------------------------------------|


   S.  S  S  S  S.  S  S.  S.  S  S  +S       +S   E
|-----21-19-21-16--21-16------21-21-(21)b22==(21)r21-|
|-18----------------------19-------------------------|
|----------------------------------------------------|
|----------------------------------------------------|
|----------------------------------------------------|
|----------------------------------------------------|


                                     |-------3--------|
   S  S  S  S  S  S  S  S  S  S  S.  S..  S  S  S  S  S
|-19-16----19-16-13----16-13-10-----13---10----13-10-------|
|-------18----------15----------12----------12-------12----|
|----------------------------------------------------------|
|----------------------------------------------------------|
|----------------------------------------------------------|
|----------------------------------------------------------|


   S  S  S  S  S S  S  S S  S  S S  S  S  S  S
|-------10----10-9------------10-9----10-------|
|----12----12------12-10-9---------12----14s21-|
|-13-----------------------11------------------|
|----------------------------------------------|
|----------------------------------------------|
|----------------------------------------------|


               |-----3-----|                     |--3---|
   S  S  S  S  S  S  S  S  S.  S  S  S  S  S  S  S.  S  S
|----------------22---------------------------------------|
|-22-22-21-19-21----21-19-----19----18-19-21-18-18--19-21-|
|-------------------------18-----19-----------------------|
|---------------------------------------------------------|
|---------------------------------------------------------|
|---------------------------------------------------------|


                                         |---3---|    |--------3--------|
   T  S.  S  S  T  S.  S.  T  E Q   E    E.     +Q..  E  E  E  E  E  E  E
|-----------20---------------22s4s=21-|-21b22==(21)r=19-21-17-20-16-17----|
|-19-21--21----19-21--21--19----------|--------------------------------19-|
|-------------------------------------|-----------------------------------|
|-------------------------------------|-----------------------------------|
|-------------------------------------|-----------------------------------|
|-------------------------------------|-----------------------------------|


   |---------------3----------------|
   E  E  E  E  E  E  E  E  E  E  E  E
|-16-------------------------------------|
|----18-19-15-18----15-------------------|
|----------------18----16-18-14-16-------|
|----------------------------------18----|
|----------------------------------------|
|----------------------------------------|


   |---------------3----------------|
   E  E  E  E  E  E  E  E  E  E  E  E
|-------------------------------------|
|-------------------------------------|
|-14----------------------------------|
|----16-18-15-16----15----------------|
|----------------17----16-17-14-16----|
|----------------------------------17-|


   |3-|                |-------------3--------------|
   E  E  E  S.  S.  S  S.  S  S  S  S  S  S.  S  S  S
|--------------------------------------------------------|
|--------------------------------------------------------|
|---------------------14--16-18-19-18-16-18--16-14-16----|
|----------15--16--18------------------------------------|
|-------17-----------------------------------------------|
|-16-17--------------------------------------------------|


   |-----3-----|         |-------------------3--------------------|
   S.  S.  S.  S.  S  S  S.  S.  S  S  S  S  S  S  S  S  S  S  S  S
|-------------------------------------------------------------------|
|-------------------------------------------------------------------|
|-14-----------------16-18--16--14-------------16-18-16-14----------|
|-----18--16--15--18---------------18-16-15-18-------------18-16-15-|
|-------------------------------------------------------------------|
|-------------------------------------------------------------------|


                              |--------------3---------------|
   T  T  T  S  S  S.  S.  S.  S  S  S.  S.  S.  S.  S  S  S  S
|--------------------------------------------------------13----|
|-------12-15-14-12----------------12--15--12------12-15----15-|
|----13--------------14---------13-------------13--------------|
|-15---------------------16--15--------------------------------|
|--------------------------------------------------------------|
|--------------------------------------------------------------|


                               Q=185
                        ~~~~~~~~~~~~
   S  S  S  S  S  E  S  H       +W
|-13-------16----------21----|-(21)-------------------------|
|----15-18----18-21s15-------|------------------------------|
|----------------------------|------------------------------|
|----------------------------|------------------------------|
|----------------------------|------------------------------|
|----------------------------|------------------------------|
|
|                                         Gtrs II, III, IV, V
|  W                             H     Q  S  T.  T.  T.  T.
|----------------------------|--------------------------11--|
|----------------------------|------------------12--14------|
|----------------------------|--------------11--------------|
|----------------------------|------------------------------|
|----------------------------|------------------------------|
|----------------------------|------------------------------|


    W
|-------------------------------------|
|-------------------------------------|
|-------------------------------------|
|-------------------------------------|
|-------------------------------------|
|-------------------------------------|
|
|   ~~~~
|  +H      +E.. T.  T.  T. T.  T.  T.
|-(11)----(11)--9--11------9--11--12--|
|----------------------12-------------|
|-------------------------------------|
|-------------------------------------|
|-------------------------------------|
|-------------------------------------|


   W
|------------------------------------------------------------|
|------------------------------------------------------------|
|------------------------------------------------------------|
|------------------------------------------------------------|
|------------------------------------------------------------|
|------------------------------------------------------------|
|
|                                                      ~~~
|  T. T.  T.  T. T.  T. T.  T.  T.  T T  T. T.  T.  E. E.
|-11--9------------------------------------------------------|
|--------12--11--9------9--11--12--11-9-----9--11--12s14-----|
|-------------------12------------------12-------------------|
|------------------------------------------------------------|
|------------------------------------------------------------|
|------------------------------------------------------------|


    W
|------------------------------------------|
|------------------------------------------|
|------------------------------------------|
|------------------------------------------|
|------------------------------------------|
|------------------------------------------|
|
|            ~~~~~~~~~~~~~~~~~~~~~~~~
|            |--------3---------|
|  +Q.   E  +S   S  S  S  S  S. S  S  S  S
|------------------------------------------|
|-(14)s=11-(11)s13s11s13s11s13s11s13-11----|
|---------------------------------------13-|
|------------------------------------------|
|------------------------------------------|
|------------------------------------------|


      W
|-------------------------------------------------------|
|-------------------------------------------------------|
|-------------------------------------------------------|
|-------------------------------------------------------|
|-------------------------------------------------------|
|-------------------------------------------------------|
|
|  S  S  S  S  S.  T.  T.  T  S  S  S  S  S  S  S. S
|---------------------12-----------------12-14-19s21----|
|----------12-14--16------16-14-13-14-16----------------|
|-11-13-15----------------------------------------------|
|-------------------------------------------------------|
|-------------------------------------------------------|
|-------------------------------------------------------|


    W
|-----------------------|
|-----------------------|
|-----------------------|
|-----------------------|
|-----------------------|
|-----------------------|
|
|   ~~~~~    ~~~
|  +Q.    E  Q.    S  S
|-(21)s==19s18----------|
|-----------------21-20-|
|-----------------------|
|-----------------------|
|-----------------------|
|-----------------------|


                            W
|--------------------------------------------------------|
|--------------------------------------------------------|
|--------------------------------------------------------|
|--------------------------------------------------------|
|--------------------------------------------------------|
|--------------------------------------------------------|
|
|                           ~~~~~~~~~~~~
|                        |-----3-----|
|  T.  T.  T.  T.  S  S  S. S. S. S. S.   E.  S  S  S
|-19--18--16--15-----------------------------------------|
|-----------------17-16-17s19s17s19s17---16--14----17----|
|-----------------------------------------------16-------|
|--------------------------------------------------------|
|--------------------------------------------------------|
|--------------------------------------------------------|

[ Tab from: http://www.guitartabs.cc/tabs/m/malmsteen_yngwie/far_beyond_the_sun_g3_version_tab.html ]
                                      W
|----------------------------------------------|
|----------------------------------------------|
|----------------------------------------------|
|----------------------------------------------|
|----------------------------------------------|
|----------------------------------------------|
|
|              |-3-|            |3-|
|  +S   S. S.  S.  S  S. S. S.  S  S  S. S. S.
|----------------------------------------------|
|-(17)s19s17--14--12-17s19s17--14-12-17s19s17--|
|----------------------------------------------|
|----------------------------------------------|
|----------------------------------------------|
|----------------------------------------------|


                            W
|-------------------------------------------------------|
|-------------------------------------------------------|
|-------------------------------------------------------|
|-------------------------------------------------------|
|-------------------------------------------------------|
|-------------------------------------------------------|
|
|  |3-|            |3-|            |3-|  |----3----|
|  S  S  S. S. S.  S  S  S. S. S.  S  S  S  S  S.  s
|-------------------------------------------------------|
|-14-12-17s19s17--14-12-17s19s17--14-12-16-14-12--14----|
|-------------------------------------------------------|
|-------------------------------------------------------|
|-------------------------------------------------------|
|-------------------------------------------------------|


   W
|--------------------------------------|
|--------------------------------------|
|--------------------------------------|
|--------------------------------------|
|--------------------------------------|
|--------------------------------------|
|
|                     ~~~~~~~~
|  Q      +S         +Q   +Q   S  S  S
|--------------------------------------|
|-14pb16-(14)pb16===(14)r(14)-14-12-14-|
|--------------------------------------|
|--------------------------------------|
|--------------------------------------|
|--------------------------------------|


      W
|----------------------------------------------------------------|
|----------------------------------------------------------------|
|----------------------------------------------------------------|
|----------------------------------------------------------------|
|----------------------------------------------------------------|
|----------------------------------------------------------------|
|
|              |-------------------3--------------------|
|  S  S  S  S  S.  S.  S.  S.  S.  S.  S  S  S  S.  S.  S.  S
|----------------------------------------------------------12----|
|-16-17-16-14------------------------------------------14--------|
|-------------16--15--13--12--13------13----12-13--15------------|
|---------------------------------11-----14----------------------|
|----------------------------------------------------------------|
|----------------------------------------------------------------|


   W
|--------------------------------------------------------------------|
|--------------------------------------------------------------------|
|--------------------------------------------------------------------|
|--------------------------------------------------------------------|
|--------------------------------------------------------------------|
|--------------------------------------------------------------------|
|
|  |-----3------|   |----------------------3----------------------|
|  S  S  S  S.  S.  S.  S.  S  S  S.  S  S.  S.  S.  S  S  S.  S  S.
|------------------12-----------------------12-----------------------|
|-11-----------11------11---------------11------11---------------11--|
|----12----12--------------12--------12-------------12--------12-----|
|-------14--------------------14-11--------------------14-11---------|
|--------------------------------------------------------------------|
|--------------------------------------------------------------------|


   W
|--------------------------------------------------------|
|--------------------------------------------------------|
|--------------------------------------------------------|
|--------------------------------------------------------|
|--------------------------------------------------------|
|--------------------------------------------------------|
|
|  |---------3----------|
|  S.  S.  S  S  S.  S  S.  S  S  S  S  S  S  S S S  S
|-12-----------------------12----------------12s0--------|
|-----11---------------11-----11----------11------3s22---|
|---------12--------12-----------12----------------------|
|------------14-11------------------14-11----------------|
|--------------------------------------------------------|
|--------------------------------------------------------|


   W
|----------------------------|
|----------------------------|
|----------------------------|
|----------------------------|
|----------------------------|
|----------------------------|
|
|  ~~~~~~~~~
|              |----3-----|
|  H     Q.    T. T.  T.  T.
|----------------------------|
|-24----23----21s23--21--20--|
|----------------------------|
|----------------------------|
|----------------------------|
|----------------------------|


      W
|---------------------------------------------------------|
|---------------------------------------------------------|
|---------------------------------------------------------|
|---------------------------------------------------------|
|---------------------------------------------------------|
|---------------------------------------------------------|
|
|  |3-|  |-----------3-----------|
|  E  E  S.  S.  S.  S  S  S  S  S  S.  S  S.  S  S  S
|-----------21--23--24-23-21------------------------------|
|-21-23-24-------------------24-23-21--20-21--20----------|
|------------------------------------------------21-19----|
|---------------------------------------------------------|
|---------------------------------------------------------|
|---------------------------------------------------------|


   W
|---------------------------------------------------------|
|---------------------------------------------------------|
|---------------------------------------------------------|
|---------------------------------------------------------|
|---------------------------------------------------------|
|---------------------------------------------------------|
|
|  |--------3--------|
|  S  S  S..  S.  S  T  S  S  S  S  S  S  T  S.  S  S  S.
|---------------------------------------------------------|
|-17-19-17---16--------17-16-14---------------------------|
|----------------18-17----------16-15-13-15-13------------|
|-----------------------------------------------17-14-13--|
|---------------------------------------------------------|
|---------------------------------------------------------|


   W
|------------------------------------------------|
|------------------------------------------------|
|------------------------------------------------|
|------------------------------------------------|
|------------------------------------------------|
|------------------------------------------------|
|
|                              ~~~~~~~
|  |---3---|   |-----3-----|
|  S.  S.  S.  S.  S.  S.  S.  Q  +S   S. S.S
|------------------------------------------------|
|------------------------------------------------|
|-------------------------------------12s22s0----|
|-15--13--12----------12-------------------------|
|-------------15--14------15---------------------|
|-----------------------------15-(15)------------|


              ~~~~~~~~~
   E  H      +Q    +E
|----16-----(16)--(16)-|
|----------------------|
|----------------------|
|----------------------|
|----------------------|
|----------------------|
|
|  H      H
|----------------------|
|----------------------|
|----------------------|
|----------------------|
|----------------------|
|-16-------------------|


   |-3-|   |-----3-----|  |-----3-----|      |--------3---------|
   S  +S   S  S  S  S  S  S  S  S  S  E.  S  S  S  S.  E  S  S  S
|-------------------------------------------17-16-14--17-14-16-16----|
|-19-(19)-17-16----16-17-19-17-16----17--19--------------------------|
|---------------18----------------18---------------------------------|
|--------------------------------------------------------------------|
|--------------------------------------------------------------------|
|--------------------------------------------------------------------|
|
|  W
|--------------------------------------------------------------------|
|--------------------------------------------------------------------|
|--------------------------------------------------------------------|
|--------------------------------------------------------------------|
|--------------------------------------------------------------------|
|--------------------------------------------------------------------|


   |---3----|  |-------3--------|
   S  S  S  E  T  S  S.  S.  E  E      Q   E.
|-17-16-14-17-14-16-17--16--17-17b18.5--------|
|---------------------------------------------|
|---------------------------------------------|
|---------------------------------------------|
|---------------------------------------------|
|--------------------------------------3s=18--|
|
|  W
|---------------------------------------------|
|---------------------------------------------|
|---------------------------------------------|
|---------------------------------------------|
|---------------------------------------------|
|---------------------------------------------|


   |---------3---------|  |------3------|    |---------3----------|  |--3--|
   S    S  S  S  S  S  S  S  S  S..  S  S..  S.  S.  S.  S  S     S  S  S  S
|---------------------------14-17---17s14---------------16-17----16-14--------|
|------------------14-16-17-----------------17--16--14-----------------17-14--|
|---------13-15-16------------------------------------------------------------|
|-14---16---------------------------------------------------------------------|
|-----------------------------------------------------------------------------|
|-----------------------------------------------------------------------------|
|
|  H..                                                   S     S
|-----------------------------------------------------------------------------|
|-----------------------------------------------------------------------------|
|-----------------------------------------------------------------------------|
|-------------------------------------------------------14s===16--------------|
|-----------------------------------------------------------------------------|
|-----------------------------------------------------------------------------|


   Q Q  H
|-16s0---------------------------------|
|--------------------------------------|
|--------------------------------------|
|--------------------------------------|
|--------------------------------------|
|--------------------------------------|
|
|                              |--3--|
|  E.   Q  S  S.  S  S  S  S.  S  S  S
|--------------------------------------|
|--------------------------------------|
|--------------------------------------|
|-16s==18-16-14--18-16-14-16-----------|
|--------------------------------------|
|-----------------------------13-15-16-|


   W
|-----------------------------------------------------------|
|-----------------------------------------------------------|
|-----------------------------------------------------------|
|-----------------------------------------------------------|
|-----------------------------------------------------------|
|-----------------------------------------------------------|
|
|              |----3----|     |--3--|  |--3--|  |--3--|
|  S  S  S  S  S.  S  S  S  S  S  S  E  S  S  E  S  S  E
|-----------------------------------------------------------|
|-----------------------------------------16-17-16----------|
|-----------------------------------17-18----------18-17----|
|-----------------16-18-19-16-18-19-------------------------|
|-16-18-19-16-19--------------------------------------------|
|-----------------------------------------------------------|


   W
|-------------------------------------------------------|
|-------------------------------------------------------|
|-------------------------------------------------------|
|-------------------------------------------------------|
|-------------------------------------------------------|
|-------------------------------------------------------|
|
|                                |--3--|        |--3--|
|  S  S  S  S  S  S  S  S  S  S  S  S  S  S  S  S  S  S
|----------16-17-16----------16-17-16----------16-17-19-|
|-16-17-19----------19-17-19----------19-17-19----------|
|-------------------------------------------------------|
|-------------------------------------------------------|
|-------------------------------------------------------|
|-------------------------------------------------------|


        |-3--|
  H.    E E  E
|----------------------------|
|----------------------------|
|----------------------------|
|------------x---------------|
|---------x------------------|
|-------x--------------------|
|
|     Q.     E   E  Q.
|----19s====16--18-16tr18----|
|----------------------------|
|----------------------------|
|----------------------------|
|----------------------------|
|----------------------------|


   |-------3-------|   |-------------------3--------------------|
   S.  S.  S.  S.  S.  S  S  S  S  S.  S.  S.  S.  S.  E  S  S  S
|-----------------------------------------------------------------|
|-21--19--21--19--17--19-17-----------17--19--21--22--21-21-19-17-|
|---------------------------20-18-20------------------------------|
|-----------------------------------------------------------------|
|-----------------------------------------------------------------|
|-----------------------------------------------------------------|
|
|  W
|-----------------------------------------------------------------|
|-----------------------------------------------------------------|
|-----------------------------------------------------------------|
|-----------------------------------------------------------------|
|-----------------------------------------------------------------|
|-----------------------------------------------------------------|


                                     ~~~~~~~~~~~~
      |--3--|
   S  E  E  E  S  S  S  S  S  S.  T  E       +E
|-----------------------------------22b23.5-(22)----|
|-19-21-22-21-19-21-22-21-19-21--19-----------------|
|---------------------------------------------------|
|---------------------------------------------------|
|---------------------------------------------------|
|---------------------------------------------------|
|
|  W
|---------------------------------------------------|
|---------------------------------------------------|
|---------------------------------------------------|
|---------------------------------------------------|
|---------------------------------------------------|
|---------------------------------------------------|


    ~~~~
        |--3--|  |--------3--------|  |-----3-----|
   +Q.  S  S  S  S  S  S  S  S  S  S  S  S  S  S  S
|-(22)----------------------------------------22-----|
|------------------------------------21-22-21----21--|
|---------------------------18-20-21-----------------|
|------------------18-19-21--------------------------|
|------18-19-21-21-----------------------------------|
|----------------------------------------------------|
|
|   W
|----------------------------------------------------|
|----------------------------------------------------|
|----------------------------------------------------|
|----------------------------------------------------|
|----------------------------------------------------|
|----------------------------------------------------|


   |---3---|           |----3----|
   E  S..  E  S  S  S  S   S  S  S  S.  S  S  S  S  S
|------------------------------------------------------|
|---------22-21-19-------------------------------------|
|-20-18------------21-20--18-17-18-20--18-17-----------|
|--------------------------------------------18-16-----|
|--------------------------------------------------18--|
|------------------------------------------------------|
|
|  H             Q     E.                  S
|------------------------------------------------------|
|------------------------------------------------------|
|------------------------------------------------------|
|-----------------------------------------14-----------|
|------------------------------------------------------|
|------------------------------------------------------|


  Q=180
   W                   W
|-------------------|--------------------------------------------------------|
|-------------------|--------------------------------------------------------|
|-------------------|--------------------------------------------------------|
|-------------------|--------------------------------------------------------|
|-------------------|--------------------------------------------------------|
|-------------------|--------------------------------------------------------|
|
|  ~~~~~~~~~~~
|                      |-3-|  |3-|  |-----3-----|   |-------3--------|  |3-|
|  H  +H               E.  S  S  S  S.  S.  S.  S.  S  S  S  S.  S.  E  E  E
|-------------------|-------------------------------------------17-----------|
|-------------------|------------------------------------16-19------16-------|
|-------------------|------------------------------14-17------------------17-|
|-16-(16tr18)-------|--------13-16-----13--15--17----------------------16----|
|-------------------|-----15-------16----------------------------------------|
|-------------------|-14-----------------------------------------------------|


             W
|------------------------------------------------|
|------------------------------------------------|
|------------------------------------------------|
|------------------------------------------------|
|------------------------------------------------|
|------------------------------------------------|
|
|  S  S  S.  S  S.  S  S  S  S  S  S  S  S  S  S
|----16-14--16-14--16-12-16-11-16----16----16-14-|
|-16------------------------------14----14-------|
|------------------------------------------------|
|------------------------------------------------|
|------------------------------------------------|
|------------------------------------------------|


                 W
|------------------------------------------------------|
|------------------------------------------------------|
|------------------------------------------------------|
|------------------------------------------------------|
|------------------------------------------------------|
|------------------------------------------------------|
|
|        |-3-|   |-----3-----|              |3-|  |3-|
|  S  S  S.  S.  S  S  S  E  S  S  S  S  S  E  E  S  S
|-14-12-14--16--17-16-14-------------------------------|
|------------------------17-16-14-13-17-16-14-13-17-14-|
|------------------------------------------------------|
|------------------------------------------------------|
|------------------------------------------------------|
|------------------------------------------------------|


   |----------------------3----------------------|
   Q          Q     Q     Q         Q            Q
|--------------------------------------------------------------------|
|--------------------------------------------------------------------|
|--------------------------------------------------------------------|
|--------------------------------------------------------------------|
|--0----------------------4---------0------------3-------------------|
|-------------2-----4------------------------------------------------|
|
|             |---3----|  |----------3-----------|   |3-|      |3-|
|  E     +E   S  S  S  E  S  S.    +S.  +S.     +S.  S  S.  S  S  S
|--------------------------------------------------------------------|
|-17b19-(17)-17-16-14-13-19-17b19-(17)-(17)b19-(17)-16-14--13--------|
|-------------------------------------------------------------14-13--|
|--------------------------------------------------------------------|
|--------------------------------------------------------------------|
|--------------------------------------------------------------------|


   |--------------------------------3---------------------------------|
   Q                 Q             Q          Q           Q           Q
|-----------------------------------------------------------------------------|
|-----------------------------------------------------------------------------|
|-----------------------------------------------------------------------------|
|-----------------------------------------------------------------------------|
|--0------------------------------------------4-----------0-----------3-------|
|--------------------2-------------4------------------------------------------|
|
|  ~~~~~~~~~~~~~~~~~~~~~~~~~
|                               |----3----|   |------3-------|
|  S     +S   +S        +S   S  S.    S.  S.  S  S.  S  S    S.  S  S    S  S
|---------------------------------------------------------------12------------|
|---------------------------------------------------13-14---16-----16---14-13-|
|-13b14r(13)-(13)b15r==(13)-13-11--------11--13-14----------------------------|
|------------------------------------12---------------------------------------|
|-----------------------------------------------------------------------------|
|-----------------------------------------------------------------------------|


   |-------------------------3-------------------------|
   Q       Q           Q            Q       Q          Q
|---------------------------------------------------------------|
|---------------------------------------------------------------|
|---------------------------------------------------------------|
|---------------------------------------------------------------|
|--0--------------------------------4-------0----------3--------|
|----------2-----------4----------------------------------------|
|
|                |-------3-------|
|  S  S  S    S  S.  S    S.  S  S  S  S  S    S  S  S    S  S
|----14-16---17-16--14------------------------------------------|
|-16---------------------17--16-14-17-16-17---16-14-12---14-16--|
|---------------------------------------------------------------|
|---------------------------------------------------------------|
|---------------------------------------------------------------|
|---------------------------------------------------------------|


                                                          Q=176
   |----------------3-----------------|
   E    E         E   E     E         E   Q          Q    W
|-------------------------------------------------------|----------|
|-------------------------------------------------------|----------|
|-------------------------------------------------------|----------|
|--6----6---------6---6-----6---------6---6----------4--|-2--------|
|--4----4---------4---4-----4---------4---4----------2--|-0--------|
|-------------------------------------------------------|----------|
|
|  ~~~~~~~~~~~~~~~~~~~~~~~~~~~~~~~~~~~~~~~~~~~~~
|  E       +E        +E        +E        +S      E S Q    W
|-------------------------------------------------------|----------|
|-16b17r==(16)b17r==(16)b17r==(16)b17r==(16)b17-17s5----|----------|
|-------------------------------------------------------|----------|
|-------------------------------------------------------|----------|
|-------------------------------------------------------|----------|
|-------------------------------------------------------|----------|


  |-3--|                          |-3-|  |-------3-------|   |3-|
  Q Q +Q  +H        H.      E E   E E E  E  E  E  E  E  +E   Q  E
|-----------------|-------------|-----------------------------------|
|-----------------|-------------|-----------------------------------|
|-----------------|-4-----------|------------------------------13---|
|-----------------|-4-----------|---------------------------13-13---|
|-0---------------|-2-----------|----------------11-11-(11)---------|
|---0-(0)-(0)-----|---------2s4-|-9-9-9-12-11-12--------------------|
|
| W                 W                    W
|-----------------|-------------|-----------------------------------|
|-----------------|-------------|-----------------------------------|
|-----------------|-------------|-----------------------------------|
|-----------------|-------------|-----------------------------------|
|-----------------|-------------|-----------------------------------|
|-----------------|-------------|-----------------------------------|


                  ~~~~~~~~~~                   ~~~~~~~~~
                                    |----3-----|
   +S       +E.  +Q    +Q     E E   Q  Q      +Q   +H
|---------------------------------|------------------------|
|---------------------------------|------------------------|
|-(13)b14==(13)-(13)--(13)r-------|---14b16==(14)-(14)r----|
|-(13)b14==(13)-(13)--(13)r-------|------------------------|
|----------------------------10s0-|-0----------------------|
|----------------------------10s0-|------------------------|


       ~~~
                                     |-------3--------|
  S S  Q.    S.  S  S  T  E  S  S    H   +H    Q     +Q
|---------------------------------|-----------------------|
|------------------------14----16-|-17--(17)--16b18r(16)--|
|-----11--------11-13-11----13----|-----------------------|
|---x-------14--------------------|-----------------------|
|-x-------------------------------|-----------------------|
|---------------------------------|-----------------------|


    ~~~                  ~~~~                        ~~
                                   |----3----|              |--3---|
    W          S S S  S  Q..    S  S.  S  S  S  S    H     +Q   Q  Q
|------------|-------19-16---------------14-16-17-|-19----(19)-17-19-|
|-/14--------|-----x-----------14-16--17----------|------------------|
|------------|---x--------------------------------|------------------|
|------------|-x----------------------------------|------------------|
|------------|------------------------------------|------------------|
|------------|------------------------------------|------------------|


               |---3---|     |---3---|     |-------3-------|
   S  S  S  S  S.  S.  S  S  S.  S.  S  S  S.  S.  S.  S.  S
|-21-19-17-21-19--17--16-19-17--16--14-17-16--14--12--16--14---|
|--------------------------------------------------------------|
|--------------------------------------------------------------|
|--------------------------------------------------------------|
|--------------------------------------------------------------|
|--------------------------------------------------------------|


   S.  S  S  S  S  S  T  T  T  S  S  S  S  E  S  S
|-15--------------------------------14-16-19-16-14-|
|-----17-16-14-16-14-------14-16-17----------------|
|--------------------17-17-------------------------|
|--------------------------------------------------|
|--------------------------------------------------|
|--------------------------------------------------|


    |3-|  |--3---|   |3-|  |--3---|      |3-|
   +E  E  E     +E   E  E  E..   +E.  S  E  E
|-(14)--------------21---------------------------|
|--------19b21-(19)----21-19b21-(19)-19-17-16----|
|------------------------------------------------|
|------------------------------------------------|
|------------------------------------------------|
|------------------------------------------------|


                                  ~~~~~~~~~~~~~
   |---3----|
   S  +S   +S   S  S  S  S  S  S  S  +Q   +E.
|-19-(19)-(19)---------------------------------|
|--------------17-16-14-17-16-14-16-(16)-(16)s=|
|----------------------------------------------|
|----------------------------------------------|
|----------------------------------------------|
|----------------------------------------------|


                      ~~~~~~~~~     ~
  |-----3------|      |-3--|    |3|
  Q Q Q Q  Q   Q   S  E.  +E..  E E H
|----------------|-----------------------|
|-5--------------|-----------------------|
|---8-8-8--9--11-|-9s11--(11)---9-8-9----|
|----------------|-----------------------|
|----------------|-----------------------|
|----------------|-----------------------|


                         ~~~~~~~~              ~~~~~~~
   |-------3--------|
  +Q    Q  Q  Q  Q  Q    H     H       S  E.  +Q    H
|---------------------|-------------|--------------------|
|---------------------|-------------|--------------------|
|-(9)/-11-11-11-13-14-|-13----16----|-16-14--(14)--------|
|---------------------|-------------|--------------16----|
|---------------------|-------------|--------------------|
|---------------------|-------------|--------------------|


   S  S  S  S  S  S  S  S  +S  E +E.  S  S
|-------------------------------------------|
|------------------------------------13-14--|
|-------------------------------------------|
|-18-16-18-16-18-19-18----------------------|
|----------------------19-(19)-0-(0)--------|
|-------------------------------------------|


  Q=190
                                     |------3------|
   S  S  E   S  S  S  S  S  S  S  S  S  S.  S  S   S.
|-----------17-14-16-18-16-14-17-14-16-17--16-14--17--|
|-17-14-17--------------------------------------------|
|-----------------------------------------------------|
|-----------------------------------------------------|
|-----------------------------------------------------|
|-----------------------------------------------------|


               |------3-------|              |--3--|
   S  S  S  S  S  S  S  S  S  S  S  S  S  S  E  E  E
|-16-17-16-14-17-14-16-17-16-14-17-16-14-16-17-14-17--|
|-----------------------------------------------------|
|-----------------------------------------------------|
|-----------------------------------------------------|
|-----------------------------------------------------|
|-----------------------------------------------------|


               |------3------|
   S  S  S  S  S  S.  S.  S  S  E  S  S  S  S  E
|-16-16-16-16-16-17--16--14-16-16-16-17-16-14-16-|
|------------------------------------------------|
|------------------------------------------------|
|------------------------------------------------|
|------------------------------------------------|
|------------------------------------------------|


                                   ~~~~
   |---3---|
   S.  S.  S.  S  S  Q   +S   E.  +E.
|-16--16--17--16-14-16--(16)-21--(21)----|
|----------------------------------------|
|----------------------------------------|
|----------------------------------------|
|----------------------------------------|
|----------------------------------------|


     \3___/
                        ~~~~~~
  |-------3-------|
  E +S   +E  +S  +E.    Q.  q
|-----------------------------|
|--------------------([15])-0-|
|-----------------------------|
|-0-(0)--(0)-(0)-(0)---(0)----|
|-0-(0)--(0)-(0)-(0)---(0)----|
|-----------------------------|


         |--------------3--------------|    |--3---|
  S. S.  S.  S.  S.  S.  S.  S.  S  S  S    S   S  S  S  S  S
|----0--21--19--17--16--17--16--14-16-13--(16)-17-19-16-19-21----|
|-x--------------------------------------------------------------|
|----------------------------------------------------------------|
|----------------------------------------------------------------|
|----------------------------------------------------------------|
|----------------------------------------------------------------|


   |------------------------------3-------------------------------|
   S.  S.  S  S.  S.  S  S.  S.  S  S.  S.  S  S.  S.  S  S.  S.  S
|-19--16--19-17--16--17-14--16--17-19--16--17-21--21--19-17--21--19-|
|-------------------------------------------------------------------|
|-------------------------------------------------------------------|
|-------------------------------------------------------------------|
|-------------------------------------------------------------------|
|-------------------------------------------------------------------|


   T.  T  T  T.  T  T  T  S  S  S  S  S  S  S  T  T  S  S  S S
|-17--16-14-19--17-16-14-17-16-14-12-16-13-11-11-11-10-12-10-8-|
|--------------------------------------------------------------|
|--------------------------------------------------------------|
|--------------------------------------------------------------|
|--------------------------------------------------------------|
|--------------------------------------------------------------|


   S S S S  S  S  S S  S Q S  T  S  T
|-11-8-9-8------------10-0-8-10-11-14-|
|----------10-13-10-8-----------------|
|-------------------------------------|
|-------------------------------------|
|-------------------------------------|
|-------------------------------------|


                     |-------3-------|
   S  S  S  S  S  S  S.  S.  S.  S.  S.  E.E
|----------14-16-17-16--14----------------------|
|-17-14-17------------------17--16--14----------|
|-----------------------------------------------|
|---------------------------------------14s5----|
|---------------------------------------14s5----|
|-----------------------------------------------|


  E  S  S.  T  S  T  S  S  S  S  S  S  S  S  S  T
|-------------------21-------18-------18----------|
|---20-19--20-20-20----19-20----17-20----17-17-17-|
|-------------------------------------------------|
|-------------------------------------------------|
|-------------------------------------------------|
|-------------------------------------------------|


                                    ~~
   |------------3------------|         |------3------|
   S.  S.  S.  S.  S. S.  S. S.  S  E  S.  S  S  S.  S  T  T
|---------15----------x---------15-15-------------------------|
|-15--17------11--14-----11s14--------13--14-16-17--14-16-17--|
|-------------------------------------------------------------|
|-------------------------------------------------------------|
|-------------------------------------------------------------|
|-------------------------------------------------------------|


   +S   T  S.  S  S  S  S  S  S  S.  T  S  S  S  S  S
|------16-17--16-14-----------------------------------|
|-(17)--------------17-16-13-14-16--14-13-14-13-------|
|-----------------------------------------------15-13-|
|-----------------------------------------------------|
|-----------------------------------------------------|
|-----------------------------------------------------|


                           ~~~~~~~~~~~
   S  S  S  S  S  S  S     H      +S
|---------------------------------------|
|---------------------------------------|
|-16-15-13-15-13------------------------|
|----------------17-14----13-----(13)---|
|---------------------------------------|
|---------------------------------------|


                        |--3--|
   E  S  S  S  S  S  S  S  S  S  S  S  S  S  S  S
|-17-16-17-14-21-14-16-17-16-14-21-14-16-17-16-14-|
|-------------------------------------------------|
|-------------------------------------------------|
|-------------------------------------------------|
|-------------------------------------------------|
|-------------------------------------------------|


   |------3------|                |--3--|
   S.  S.  S  S  S  S  S  S  S Q  E  E  E
|-21--14--16-17-16-21-14s16s14-7s21-21-21----|
|--------------------------------------------|
|--------------------------------------------|
|--------------------------------------------|
|--------------------------------------------|
|--------------------------------------------|


                                             |--3--|
   +E       +E   +Q    +Q    +Q      +H   Q. S  S  S
|-(21)b24==(21)-(21)r=(21)--(21)--|-(21)-----9-12-16-|
|---------------------------------|------------------|
|---------------------------------|------------------|
|---------------------------------|------------------|
|---------------------------------|------------------|
|---------------------------------|------------------|


   |3|          |--3--|         |-----------3------------|
   S S  S  S S  S  S. S.  S  S  S.  S S  S  S S  S  S S  S
|-12-9-16-12-9-16-12--9--16-12-16--12-9-16-12-9-16-12-9-12--|
|-----------------------------------------------------------|
|-----------------------------------------------------------|
|-----------------------------------------------------------|
|-----------------------------------------------------------|
|-----------------------------------------------------------|


   |-------------3--------------|
   S S  S  S  S S  S  S S  S  S S  S  S S  S  S S  S  S
|-16-9-12-17-12-9-16-12-9-17-12-9-12-16-9-12-16-9-12-16-|----|
|-------------------------------------------------------|----|
|-------------------------------------------------------|----|
|-------------------------------------------------------|----|
|-------------------------------------------------------|----|
|-------------------------------------------------------|----|


Duration Legend
---------------
W - whole; H - half; Q - quarter; E - 8th; S - 16th; T - 32nd; X - 64th; a - acciaccatura
+ - note tied to previous; . - note dotted; .. - note double dotted
Uncapitalized letters represent notes that are staccato (1/2 duration)
Irregular groupings are notated above the duration line
Duration letters will always appear directly above the note/fret number it represents the
duration for.  Duration letters with no fret number below them represent rests.  Multi-
bar rests are notated in the form Wxn, where n is the number of bars to rest for.  Low
melody durations appear below the staff

Tablature Legend
----------------
 h   - hammer-on
 p   - pull-off
 b   - bend
 pb  - pre-bend
 r   - bend release (if no number after the r, then release immediately)
 /\  - slide into or out of (from/to "nowhere")
 s   - legato slide
 S   - shift slide
  - natural harmonic
[n]  - artificial harmonic
n(n) - tapped harmonic
 ~   - vibrato
 tr  - trill
 T   - tap
 TP  - trem. picking
 PM  - palm muting
\n/  - tremolo bar dip; n = amount to dip
 \n  - tremolo bar down
 n/  - tremolo bar up
/n\  - tremolo bar inverted dip
 =   - hold bend; also acts as connecting device for hammers/pulls
   - volume swell (louder/softer)
 x   - on rhythm slash represents muted slash
 o   - on rhythm slash represents single note slash

Misc Legend
-----------
 |  - bar
||  - double bar
||o - repeat start
o|| - repeat end
*|  - double bar (ending)
 :  - bar (freetime)
 $  - Segno
 &  - Coda
Tempo markers -  = BPM(8/16=s8/s16), where s8 = swing 8ths, s16 = swing 16ths


***************************************************************************************
* Generated using Power Tab Editor by Brad Larsen - http://powertab.guitarnetwork.org *
***************************************************************************************
Comments