Malmsteen Yngwie - Example 1 E Diminished Arpeggio Reh Video Chords & Tabs

 

Example 1 E Diminished Arpeggio Reh Video Chords & Tabs

Malmsteen Yngwie Chords & Tabs

Version: 1 Type: Tab 0 ratings
1 star 2 stars 3 stars 4 stars 5 stars
comments

Example 1 E Diminished Arpeggio Reh Video Tab

Yngwie Malmsteen 
REH Instructional Video
Example 1 - E diminished arpeggio

I'll try to tab all the examples I can. I'm tabbing straight from
the Booklet that comes with the video. You can download the video 
from kazaa and other programs. Even if you're not an Yngwie fan
he has some pretty good licks,arpeggios and phrases that you can 
use.

Any requests from the video I can do as well.Private message me
in the forum. nick: dr_rusin
Enjoy! Mark...

[ Tab from: http://www.guitartabs.cc/tabs/m/malmsteen_yngwie/example_1_e_diminished_arpeggio_reh_video_tab.html ]
3--0-----------0--6--3-----------3--9--6-----------6--12-9--
------2-----2-----------5-----5-----------8-----8-----------
---------3-----------------6-----------------9--------------
------------------------------------------------------------
------------------------------------------------------------
------------------------------------------------------------


---------9---15---12-------------12---18---15---------------15---21-
11----11--------------14------14----------------17------17----------
---12---------------------15------------------------18--------------
--------------------------------------------------------------------
--------------------------------------------------------------------
--------------------------------------------------------------------
Comments