Malmsteen Yngwie - Demon Driver Arpeggios Chords & Tabs

 

Demon Driver Arpeggios Chords & Tabs

Malmsteen Yngwie Chords & Tabs

Version: 1 Type: Tab 0 ratings
1 star 2 stars 3 stars 4 stars 5 stars
comments

Demon Driver Arpeggios Tab

   
#----------------------------------PLEASE NOTE---------------------------------#
#This file is the author's own work and represents their interpretation of the #
#song. You may only use this file for private study, scholarship, or research. #
#------------------------------------------------------------------------------#

Title: "Demon Driver" (Arpeggios)
Artist: Yngwie J. Malmsteen
Album: Eclipse (1990)
Transcribed by: Peter Pletz
email: godspeedro1383@mylesbian.com

Tune down one half step!



     Bm            F#              Bm            F#
      v   v ^ ^ ^ etc.
       _3_   _3_
      | | | | | | etc.
e :--10p7-------7--9p6-------6--|--10p7-------7--9p6-------6--|
B :-------7---7--------7---7----|-------7---7--------7---6----|
G :---------7------------6------|---------7------------6------|
D :-----------------------------|-----------------------------|
A :-----------------------------|-----------------------------|
E :-----------------------------|-----------------------------|


     Bm            Db                D                  A

e :--10p7-------7--12p9--------9--|--14p10----------10--12p9---------9--|
B :-------7---7---------9----9----|--------10----10----------10---10----|
G :---------7-------------10------|-----------11----------------9-------|
D :-------------------------------|-------------------------------------|
A :-------------------------------|-------------------------------------|
E :-------------------------------|-------------------------------------|


    D                 B                   Em                B
[ Tab from: http://www.guitartabs.cc/tabs/m/malmsteen_yngwie/demon_driver_arpeggios_tab.html ]
e :-14p10----------10-14p11----------11-|-15p12----------12-14p11----------11-|
B :-------10----10----------12----12----|-------12----12----------12----12----|
G :----------11----------------11-------|----------12----------------11-------|
D :-------------------------------------|-------------------------------------|
A :-------------------------------------|-------------------------------------|
E :-------------------------------------|-------------------------------------|


    Em                Bdim7               F#sus             

e :-15p12----------12-16p13----------13-|-19p14----------14-19p14----------14-|
B :-------12----12----------15----15----|-------14----14----------14----14----|
G :----------12----------------16-------|----------16----------------16-------|
D :-------------------------------------|-------------------------------------|
A :-------------------------------------|-------------------------------------|
E :-------------------------------------|-------------------------------------|


     F#

e :--18p14----------14--18p14----------14--||
B :--------14----14-----------14----14-----||
G :-----------15-----------------15--------||  repeat
D :----------------------------------------||
A :----------------------------------------||
E :----------------------------------------||



LEGEND:

      v
e :---5---|   =   upstroke

      ^
e :---5---|   =   downstroke

e :--9p6--|   =   pull off



---TABS, LYRICS AND CHORDS Detail Data-----------------------------------
Automatically imported by TLC. Check out TLC at www.tabslyricschords.com!

---TLC DATA - Do Not Modify Between Lines--------------------------------
    Title: 
   Author: 
Copyright: 
    Album: 
 Category: 
    Tempo: 
   Tabber: 
      Key: 
     Memo: 
  LMargin: 3
  RMargin: 0
   Tuning: 
---TLC DATA - Do Not Modify Between Lines-------------------------------
Comments