Malevolent Creation - Memorial Arrangements Chords & Tabs

 

Memorial Arrangements Chords & Tabs

Malevolent Creation Chords & Tabs

Version: 1 Type: Tab 0 ratings
1 star 2 stars 3 stars 4 stars 5 stars
comments

Memorial Arrangements Tab

                     Malevolent Creation - Memorial Arrangements
                     From the Album 10 Commandments
                     Copyright Roadrunner Records
                     Version 1.0 - March - 2001

Transcribed by: death8699

For Questions, Comments, Newest Version, or Corrections contact
death8699: at death8699@prodigy.net

Check Out Death Warp, With More Transcriptions On It:
 http://tiger.towson.edu/~dalvis1

..  - palm mute          /  - slide up to
 \  - slide down to      ~  - vibrato
 h  - hammer on          b  - bend
 p  - pull off            Suffixes for bend
                          ph - pinch harmonic
                           f - full bend    h - half bend
*  - see comment           r - release      t - tap bend
X  - percussion mute       ~ - vibrato bend
@  - slight palm mute     () - ghost note, sustained note

Tune Gtr to D

Memorial Arrangements

Riff A    Hold
|------------------|
|------------------|
|-9--8----10-------| 
|-9--8----10-------| 
|-7--6----8--------|
|-7--6----8--------|

[ Tab from: http://www.guitartabs.cc/tabs/m/malevolent_creation/memorial_arrangements_tab.html ]
 Riff B   Hold     Pause    Pause      Hold                                                     
|------------------------------------|------|
|------------------------------------|------|
|-9--8----10-------------------------|-7----| 
|-9--8----10---2-2-3----2-2-3----2-2-|-7----| 
|-7--6----8----2-2-1----2-2-1----2-2-|-5----|
|-7--6----8----0-0-1----0-0-1----0-0-|-5----|
               . .      . .      . .
 
 Riff C                          Hold
|------------------------------------------|
|------------------------------------------|
|-------------------------9--12\-----------|
|-2-2-2-2-2-2-2-2-2-2-2-2-9--12\--2--------| 
|-2-2-2-2-2-2-2-2-2-2-2-2-7--10\--2--------|
|-0-0-0-0-0-0-0-0-0-0-0-0-7--10\--0--------|
  . . . . . . . . . . . .


 Riff D  Hold                                                                 
|-----------------|
|-----------------|
|-12--9--8--------|Gtr 
|-12--9--8--------| II
|-10--7--6--------|
|-10--7--6--------|


 Hold (End)
|----------|
|----------|
|-7--------|
|-7--------|
|-5--------|
|-5--------|


Check Out Death Warp, With More Transcriptions On It:
 http://tiger.towson.edu/~dalvis1
Comments