Malevolent Creation - In Cold Blood Chords & Tabs

 

In Cold Blood Chords & Tabs

Malevolent Creation Chords & Tabs

Version: 1 Type: Tab 0 ratings
1 star 2 stars 3 stars 4 stars 5 stars
comments

In Cold Blood Tab

In cold blood
Malevolent Creation
tabbed by Jeff Peters

|-----------------------------------|
|-----------------------------------|
|-----------------------------------|
|-----------------------------------|
|-----------------------------------|
|-0-2-1~--0-2-1-0--0-2-1~--0-2-1-0--|

|---------------------------------|
|---------------------------------|
|---------------------------------|
|---------------------------------|
|-2-4-3--2-4-3-2--2-4-3--2-4-3-2--|
|-0-2-1--0-2-1-0--0-2-1--0-2-1-0--|

|-------------------------------|
|-------------------------------|
|-------------------------------|
|-------------------------------|
|-2-2-2-2-2-2-2-2-2-2-2-4-4-4-4-|
|-0-0-0-0-0-0-0-0-0-0-0-2-2-2-2-|
    . . .   . . . .   .
[ Tab from: http://www.guitartabs.cc/tabs/m/malevolent_creation/in_cold_blood_tab.html ]
|------------------------------------|
|------------------------------------|
|------------------------------------|
|------------------------------------|
|-2-2-2-2-2-2-2-2-2-2-2-4-3-2--4-3-2-|
|-0-0-0-0-0-0-0-0-0-0-0-2-1-0--2-1-0-|
    . . .   . . . .   .            .

|----------------------------------------------|
|----------------------------------------------|
|----------------------------------------------|
|----------------------------------------------|
|-2-4-3-2--22-4-3-2-2-2--2-4-3-2--22-4-3-2-2-2-|
|-0-2-1-0--00-2-1-0-0-0--0-2-1-0--00-2-1-0-0-0-|


|----------------------------------------------|
|----------------------------------------------|
|----------------------------------------------|
|----------------------------------------------|
|-------------------3b*--------------------3b*-|
|-0-2-1-0--00-2-1-0------0-2-1-0--00-2-1-0-----|
Comments