Major Accident - Terrorist Gang Chords & Tabs

 

Terrorist Gang Chords & Tabs

Major Accident Chords & Tabs

Version: 1 Type: Tab 0 ratings
1 star 2 stars 3 stars 4 stars 5 stars
comments

Terrorist Gang Tab

Band: Major Accident
Song: Terrorist Gang

tabbed by jam9383@yahoo.com


Intro

e---------------------------------------------------------------------|
B---------------------------------------------------------------------|
G---7------------------7---------------7----------9-------------------|
D---7------7-----9-----7----7-----9----7----7-----9-------------------|
A---5------7-----9-----5----7-----9----5----7-----7-------------------|
E----------5-----7----------5-----7---------5-------------------------|

Verse
[ Tab from: http://www.guitartabs.cc/tabs/m/major_accident/terrorist_gang_tab.html ]
e---------------------------------------------------------------------|
B---------------------------------------------------------------------|
G--7-7-7-7---------7-7-7-7---------7-7-7-7----------------------------|
D--7-7-7-7-7-7-7-7-7-7-7-7-7-7-7-7-7-7-7-7-7-7-7-7-9-9-9-9--9-9-9-9---|
A--5-5-5-5-7-7-7-7-5-5-5-5-7-7-7-7-5-5-5-5-7-7-7-7-9-9-9-9--9-9-9-9---|
E----------5-5-5-5---------5-5-5-5---------5-5-5-5-7-7-7-7--7-7-7-7---|

Chorus

e---------------------------------------------------------------------|
B---------------------------------------------------------------------|
G---7-------------7----9---11---7-------------------------------------|
D---7---7----9----7----9---11---7---7----9----------------------------|
A---5---7----9----5----7---9--------7----9----------------------------|
E-------5----7----------------------5----7----------------------------|

e---------------------------------------------------------------------|
B---------------------------------------------------------------------|
G--7-7-7--9-----------------------------------------------------------|
D--7-7-7--9--7--9-9-9-----9-9-9-9------9-9-9-9------------------------|
A--5-5-5--7--7--9-9-9-----9-9-9-9------9-9-9-9------------------------|
E------------5--7-7-7-----7-7-7-7------7-7-7-7------------------------|

any comments/corrections needed contact me, please rate
Comments