Major Accident - Leaders Of Tomorrow Chords & Tabs

 

Leaders Of Tomorrow Chords & Tabs

Major Accident Chords & Tabs

Version: 1 Type: Tab 0 ratings
1 star 2 stars 3 stars 4 stars 5 stars
comments

Leaders Of Tomorrow Tab

Punk/oi!   http://www.majoraccident.freeuk.com/

Artist- Major Accident
Song- Leaders Of Tomorrow

tabbed by jam9383@yahoo.com

Intro

e---------------------------------------------------------------------|
B---5---5--4---4--2~-------2--4--5--7--5--4-----4--2~-----------------|
G-----4------4-------------------------------4------------------------|
D---------------------------------------------------------------------|
A---------------------------------------------------------------------|
E---------------------------------------------------------------------|

e---------------------------------------------------------------------|
B-----5------5--------------------------3~~~~~~~------3h5p3--5--------|
G--------------4~~~~~~~~~~~----------4--------------------------------|
D---------------------------------------------------------------------|
A---------------------------------------------------------------------|
E---------------------------------------------------------------------|

Verse
[ Tab from: http://www.guitartabs.cc/tabs/m/major_accident/leaders_of_tomorrow_tab.html ]
e---------------------------------------------------------------------|
B---------------------------------------------------------------------|
G--9-9-9-9-9-9--------------7-7-7-7-7-7-------------------------------|
D--9-9-9-9-9-9-9-9-9-9-9-9--7-7-7-7-7-7-7-7-7-7-7-7-------------------|
A--7-7-7-7-7-7-9-9-9-9-9-9--5-5-5-5-5-5-7-7-7-7-7-7-------------------|
E--------------7-7-7-7-7-7--------------5-5-5-5-5-5-------------------|

e---------------------------------------------------------------------|
B---------------------------------------------------------------------|
G---------------------------------------------------------------------|
D----7----7------7----------------------------------------------------|
A----7----7------7----------------------------------------------------|
E----5----5------5----------------------------------------------------|

Chorus

e---------------------------------------------------------------------|
B---------------------------------------------------------------------|
G--------------------7------------------------------------------------|
D--5-5-5-5--7-7-7-7--7------------------------------------------------|
A--5-5-5-5--7-7-7-7--5------------------------------------------------|
E--3-3-3-3--5-5-5-5---------------------------------------------------|
e---------------------------------------------------------------------|


B---------------------------------------------------------------------|
G-------------9--------------------------9--9-------------------------|
D--7----------9----------9---------7--7--9--9--9----------------------|
A--7----------7----------9--x3-----7--7--7--7--9----------------------|
E--5---------------------7---------5--5--------7----------------------|


If any corrections are needed contact me
Comments