Majic Tripp - Truth Chords & Tabs

 

Truth Chords & Tabs

Majic Tripp Chords & Tabs

Version: 1 Type: Bass Tab 0 ratings
1 star 2 stars 3 stars 4 stars 5 stars
comments

Truth Bass Tab

-------------------------------------------------------------------------------
	new		    Truth- Majick Tripp             new
-------------------------------------------------------------------------------
Bass player: Tripp nosis
tabber:Tripp
5 string  standard tuning
[ Tab from: http://www.guitartabs.cc/tabs/m/majic_tripp/truth_btab.html ]
verse 1						   
g|--------|
d|--------|
a|---6----|
E|-8---6-4|
B|--------|

verse 2

g|---------|
d|---------|
a|-----6---|
E|-8-6---43|
B|---------|

verse 3
g|---------|
d|---------|
a|---------|
E|-7-6-4---|
B|--------3|

verse 1 x5
verse 2
verse 1 x2
verse 3 x2
verse 1 x4
verse 2 
verse 3 x5
Comments