Mago De Oz - Tenucare Contral Bide Chords & Tabs

 

Tenucare Contral Bide Chords & Tabs

Mago De Oz Chords & Tabs

Version: 1 Type: Tab 0 ratings
1 star 2 stars 3 stars 4 stars 5 stars
comments

Tenucare Contral Bide Tab

   
GUITARRA:

E ------------------------------|
A ------------------------------|
D ------------------------------|
G ------------------------------|
B -14-14-14-14-14-14-14---17-19-|
E -12-12-11-12-12-12-12---15-17-|

INTRO:

E-A-G-B-A# (x4)

LETRA:

E
Te succionare el cerebro por la oreja con un aspirador
E                                    A        G
Te arrancare la lengua por decir que odias el Rock & Roll
B                    A                 E
Te sacare tus lindos ojos y los ba~are con pus y alcohol
B                A
Una inyeccion de legia, o nena es la solucion

PUENTE:

E -0-0-4-0-5-0-6-0-7-7---7-|
A ---------------------5---|
D -------------------------|
G -------------------------|
B -------------------------|
E -------------------------|

E                      A             E
Cari~o se ha terminado que rompas mi guitarra otra vez
B                             A                           B
Que escondas todos mis discos, te voy a esnucar contra el bide

E -0-0-4-0-5-0-6-0-7-7---7-7---7-7---7-|
A ---------------------5-----5-----5---|
D -------------------------------------|
G -------------------------------------|
B -------------------------------------|
E -------------------------------------|

E -7---7---------------5---4-5-4-5-7-|
A ---5---5-7---7---7---7-----------9-|
D ---------9-----5---5---------------|
G -----------------------------------|
B -----------------------------------|
E -----------------------------------|
[ Tab from: http://www.guitartabs.cc/tabs/m/mago_de_oz/tenucare_contral_bide_tab.html ]
E-A-G-B-A# (x4)
E
Te voy a cortar las venas con mi maquinita de afeitar
E                              A            G
Te arrancare las tetas y en la herida luego echare sal
B                          A              E
Maltrate usted a su se~ora si no le gusta el Rock & Roll
B                    A
Amputele las piernas y luego metalas en formol

PUENTE:

E -0-0-4-0-5-0-6-0-7-7---7-|
A ---------------------5---|
D -------------------------|
G -------------------------|
B -------------------------|
E -------------------------|

E                      A             E
Cari~o se ha terminado que rompas mi guitarra otra vez
B                             A                           B
Que escondas todos mis discos, te voy a esnucar contra el bide

E-G-A (x4)
A-C-D (x2)
E-G-A (x2)

PUENTE:

E -0-0-4-0-5-0-6-0-7-7---7-|
A ---------------------5---|
D -------------------------|
G -------------------------|
B -------------------------|
E -------------------------|

E-A-G-B-A# (x2)

PUENTE:

E -0-0-4-0-5-0-6-0-7-7---7-|
A ---------------------5---|
D -------------------------|
G -------------------------|
B -------------------------|
E -------------------------|

B            A#                     A
Cari~o se ha terminado.........que rompas mi guitarra otra vez
B            A#        A
Que escondas todos mis discos
                       B
Te voy a esnucar contra el bide

PUENTE:

E -0-0-4-0-5-0-6-0-7-7---7-|
A ---------------------5---|
D -------------------------|
G -------------------------|
B -------------------------|
E -------------------------|

G-A-E
Comments