Mago De Oz - La Cuesta De Los Muertos Chords & Tabs

 

La Cuesta De Los Muertos Chords & Tabs

Mago De Oz Chords & Tabs

Version: 1 Type: Tab

La Cuesta De Los Muertos Tab

   
E3---3-------------------3---3| (CONTINUACION ABAJO)
B3-3---0--------1--1-----3-3--|
G--------0--------------------|
D----------0----2------2------|
A---------------3-----3-------|
E3-----------------------3----|

EL INTRO SE TOCA DURANTE EL PRINCIPIO ASTA EL 1:


E----------3-3---------3----------------|
B1--3----------0---1--------------------|
G----------------0---------0------------|
D2----2------------2-------2------------|
A3------3----------3---2---2------------|
E----------3-----------3----------------|


SE ENCIENDE LA ROLA l:39 Y EMPIEZA LA GUITARRA ASI:
C:0   G:3  C:0  Em:0  AL PRINCIO DEL 1:39 EMPIEZA MUCHAS VECES
                         Em Y LUEGO SIGUE C,G,C,G,C,Em,C... YA SABEN
  1    0    1     0
  0    0    0     0
  2    0    2     2
  3    2    3     2
  0    3    0     0



               ESPERO LES GUSTE EL SOLO NO ES PERFECTO
                     PERO SUENA BIEN (UN POKITO) PERO EL
                         2:53 SI SUENA MUY BIEN

[ Tab from: http://www.guitartabs.cc/tabs/m/mago_de_oz/la_cuesta_de_los_muertos_tab.html ]
                SOLO
E-------------------------------------------| /2 veces
B---10-12-10H12----13-12-13-12-13-12-10-----|/
G-12------------12----------------------12--|
D-------------------------------------------|
A-------------------------------------------|
E-------------------------------------------|
                                                        /ESTO ES RAPIDO
           2:53                                        /
                                                      /
E----------------------------------------------------/-----|
B-15-15-15-15----------10-12-13-13-12-10-12-13-13-12/10----|
G------------12-12-12-----------------------------------12-|
D----------------------------------------------------------|
A----------------------------------------------------------|
E----------------------------------------------------------|




E------------------------------------------|
B15-15-15-15----------10-12-13-12-10-------|
G------------12-12-12----------------12----|
D------------------------------------------|
A------------------------------------------|
E------------------------------------------|


E----------------------------------------------------------
B-15-15-15-15----------10-12-13-13-12-10-12-13-13-12-10----|
G------------12-12-12-----------------------------------12-|
D----------------------------------------------------------|
A----------------------------------------------------------|
E----------------------------------------------------------|



E--------------------------------------------------------|
B15-15-15-15----------13-12-10---------------------------|
G------------12-12-12----------12-12-12-12-12-12-12-12-12|
D--------------------------------------------------------|
A--------------------------------------------------------|
E--------------------------------------------------------|