Mago De Oz - El Cantar De La Luna Oscura Chords & Tabs

 

El Cantar De La Luna Oscura Chords & Tabs

Mago De Oz Chords & Tabs

Version: 1 Type: Tab 0 ratings
1 star 2 stars 3 stars 4 stars 5 stars
comments

El Cantar De La Luna Oscura Tab

El tono es normal

Intro
---------------------------------------------------------
--6-----6-5-----------3------3--5---5--------------------
------7-----7--------------3------5----------------------
----7---------------5----5-------------------------------
---------------------------------------------------------
---------------------------------------------------------

solo acústico (00:16)
-------5---------------------------5---------10-8-8-8----
--6--8---8-6-5----------5-----6--8---8-6-5---------------
-----------------7--5-7---7------------------------------
---------------------------------------------------------
---------------------------------------------------------
---------------------------------------------------------
[ Tab from: http://www.guitartabs.cc/tabs/m/mago_de_oz/el_cantar_de_la_luna_oscura_tab.html ]
--10--8----8-------------------------------8-10--8----8--
--------11----11-10-11-10--8-10----8-10-11---------11----
---------------------------------------------------------
---------------------------------------------------------
---------------------------------------------------------
---------------------------------------------------------

-----------8--10--12----13----12----10-------------------
--11-10-11-----------------------------------------------
---------------------------------------------------------
---------------------------------------------------------
---------------------------------------------------------
---------------------------------------------------------


Esta cancion si me sono bien... quejas
diegoti7@hotmail.com


Diego Preciado
Comments