Mago De Oz - Astaroth Chords & Tabs

 

Astaroth Chords & Tabs

Mago De Oz Chords & Tabs

Version: 1 Type: Tab 0 ratings
1 star 2 stars 3 stars 4 stars 5 stars
comments

Astaroth Tab

   
|||||||||||||||||||||||||||||||||||||||||||||||||||||||||||||||||||||||||||||||||||||
||                                                                                 ||
||  x  - muting        p  - pull off          [] - nat. harmonic                   ||
||  /  - slide in      h  - hammer on          * - gargle                          ||
||  \  - slide out     <> - art. harmonic     \n - tremolo bar down                ||
||  ~  - vibrato       b  - bend                                                   ||
||                                                                                 ||
|||||||||||||||||||||||||||||||||||||||||||||||||||||||||||||||||||||||||||||||||||||
-------------------------------------------------------------------------------------

-------------------------------------------------------------------------------------

-------------------------------------------------------------------------------------

* - Gargle es una tecnica que consiste en golpear el puente Floyd Rose de tu guitarra
o en su defecto la palanca tremolo para crear una vibracion entre notas.

[] - Las armonias naturales (nat. harmonic) se hacen colocando tu dedo suavemente en
la cuerda (sin pisarla) sobre el fierro que indica el traste y dando el puaso.

<> - Las armonias artificiales (art. harmonic) se hacen dando el puaso de tal forma
que al momento del puaso, después de que pega la pua contra la cuerda, la carne de tu
dedo pulgar pegue la cuerda tambien.

x - Muting es un sonido en el cual las notas parecen estar cortadas o mutadas.
    Para realizarlo nomas necesitas colocar la parte inferior de la palma de
    tu mano sobre las cuerdas lo mas acercado posible al puente y despues pegar
    los puasos con tu mano
puesta en las cuerdas.

-------------------------------------------------------------------------------------

Intro
E|-----------------------------------------------------------------------------------|
B|-----------------------------------------------------------------------------------|
G|-----------------------------------------------------------------------------------|
D|---7--------x7-x7—-7/8--8\7---7--------x7-x7—-7\5—-5/7----7------------------------|
A|---7--------x7-x7—-7/8--8\7---7--------x7-x7—-7\5—-5/7----7------------------------|
E|---5--------x5-x5—-5/6--6\5---5--------x5-x5—-5\3—-3/5----5------------------------|

Riff 1 - Mientras pasa el Intro de violín
E|-----------------------------------------------------------------------------------|
B|-----------------------------------------------------------------------------------|
G|-----------------------------------------------------------------------------------|
D|---7--x7-x7--7------x7-x7--7/8—-8\7---7----x7-x7--7---5-5---7----------------------|
A|---7--x7-x7--7------x7-x7--7/8—-8\7---7----x7-x7--7---5-5---7----------------------|
E|---5--x5-x5--5------x5-x5--5/6—-6\5---5----x5-x5--5---3-3---5----------------------|

-------------------------------------------------------------------------------------|
-------------------------------------------------------------------------------------|
-------------------------------------------------------------------------------------|
-----7--x7-x7--7------x7-x7--7/8—-8\7---7----x7-x7--7---10---------------------------|
-----7--x7-x7--7------x7-x7--7/8—-8\7---7----x7-x7--7---10---------------------------|
-----5--x5-x5--5------x5-x5--5/6—-6\5---5----x5-x5--5----8---------------------------|

Intro de Violin      (0:14)
E|-----------------------------------------------------------------------------------|
B|---10--10-11-10~----15-14-15-17-17p15p14-------------------------------------------|
G|-----------------------------------------15-14---14-15-14h15p14p12~---15-12-15-14~-|
D|-----------------------------------------------------------------------------------|
A|-----------------------------------------------------------------------------------|
E|-----------------------------------------------------------------------------------|

-----12--12-13-12~----17-16-17-19-19p17p16-------------------------16~---------------|
-------------------------------------------18-17--17h18p17p15h17---------------------|
-------------------------------------------------------------------------------------|
-------------------------------------------------------------------------------------|
-------------------------------------------------------------------------------------|
-------------------------------------------------------------------------------------|

Riff 2      (0:28)
E|-----------------------------------------------------------------------------------|
B|-----------------------------------------------------------------------------------|
G|-----------------------------------------------------------------------------------|
D|---x7-x7-x7----x7-x7-x7-x7-x7----x8-x8--8----x7-x7-x7----x7-x7-----5----8----------|
A|---x7-x7-x7----x7-x7-x7-x7-x7----x8-x8--8----x7-x7-x7----x7-x7-----5----8----------|
E|---x5-x5-x5----x5-x5-x5-x5-x5----x6-x6--6----x5-x5-x5----x5-x5-----3----6----------|

-------------------------------------------------------------------------------------|
-------------------------------------------------------------------------------------|
-------------------------------------------------------------------------------------|
-----x7-x7-x7----x7-x7-x7-x7-x7----x8-x8--8----x7-x7-x7----x7-x7-----10--------------|
-----x7-x7-x7----x7-x7-x7-x7-x7----x8-x8--8----x7-x7-x7----x7-x7-----10--------------|
-----x5-x5-x5----x5-x5-x5-x5-x5----x6-x6--6----x5-x5-x5----x5-x5------8--------------|

Riff 3      (0:42)
E|-----------------------------------------------------------------------------------|
B|-----------------------------------------------------------------------------------|
G|-----------------------------------------------------------------------------------|
D|---7--7--7--5--7-------------------------------------------------------------------|
A|---7--7--7--5--7-------------------------------------------------------------------|
E|---5--5--5--3--5-------------------------------------------------------------------|

Riff 4      (0:52)
E|-----------------------------------------------------------------------------------|
B|-----------------------------------------------------------------------------------|
G|-----------------------------------------------------------------------------------|
D|-----------------------------------------------------------------------------------|
A|------5-4-5-7-5-4------------------------------------------------------------------|
E|---/5-------------6----------------------------------------------------------------|

- Riff 1

- Riff 2

- Riff 3

- Riff 4

Riff 5      (1:39)
E|--------------|--------------------------------------------------------------------|
B|--------------|--------------------------------------------------------------------|
G|--------------|-----10----------7--------------------------------------------------|
D|----7----10---|-----10----10----7----8----10---------------------------------------|
A|----7----10---|------8----10----5----8----10---------------------------------------|
E|----5-----8---|------------8---------6-----8---------------------------------------|

Riff 6      (1:51) Incompleto  | Completo      (2:05)
E|-----------------------------|-----------------------------------------------------|
B|--------10-------------------|--------10-------------------------------------------|
G|---7h10----10----12-9----10~-|---7h10----10----12-9----10-10h12-10-9------7-9-10---|
D|--------------10------10-----|--------------10------10---------------10-7----------|
A|-----------------------------|-----------------------------------------------------|
E|-----------------------------|-----------------------------------------------------|
[ Tab from: http://www.guitartabs.cc/tabs/m/mago_de_oz/astaroth_tab.html ]
-------------------------------------------------------------------------------------|
-------------------------------------------------------------------------------------|
--------------5-7--------------------------------------------------------------------|
-----10-7---8-----7~-----5~----------------------------------------------------------|
----------8--------------------------------------------------------------------------|
-------------------------------------------------------------------------------------|

Riff 7 (2:05) - Acompañamiento mientras pasa el el riff 6 completo (2:12)
E|-----------------------------------------------------------------------------------|
B|-----------------------------------------------------------------------------------|
G|--------------7-----------------------------------10------7------------------------|
D|---8---10-----7--7--8--7--8--10-------------------10--10--7--7--8--7--8--7--5------|
A|---8---10-----5--7--8--7--8--10--------------------8--10--5--7--8--7--8--7--5------|
E|---6----8--------5--6--5--6---8------------------------8-----5--6--5--6--5--3------|

Riff 8      (2:20) - Escribi los acordes para que saques esta parte a tu gusto.

          Fm          Cm            A#m            G#           ¿?
      (Fa menor)  (Do menor)  (La sos. Menor)  (Sol sos.)   (   ¿?  )
E|        8            8             6             4            3
B|        9            8             6             4            6
G|       10            8             6             5            3
D|       10           10             8             6            5
A|        8           10             8             6            3
E|        8            8             6             4            3

Orden:
Fm - Cm - A#m - Fm - Cm - A#m - G# - ¿? - A#m - G# - G# - ¿? - A#m - G# - A#m

Riff 9      (3:13)               (3:33)
Mar Cabello cantando        Jose cantando
E|-------------------------|---------------------------------------------------------|
B|-------------------------|---------------------------------------------------------|
G|-----------x8---x6---x8--|-----------x8---------------------x8---------------------|
D|----x6-----x8---x6---x8--|----x6-----x8-----x8------x6--x8--x8---------------------|
A|----x6-----x6---x4---x6--|----x6-----x6-----x8------x6--x8--x6---------------------|
E|----x4-------------------|----x4------------x6------x4--x6-------------------------|

     16x     8x   4x   4x       16x    16x    16x     4x  4x  8x

     (3:50)
-------------------------------------------------------------------------------------|
-------------------------------------------------------------------------------------|
---------------------------x8--8-----x8--8-----------------------------6----8--------|
------x6--6-----x6--6------x8--8-----x8--8------x8--8-----x8--8--------6----8----3---|
------x6--6-----x6--6------x6--6-----x6--6------x8--8-----x8--8--------4----6----3---|
------x4--4-----x4--4---------------------------x6--6-----x6--6------------------1---|

      6x        6x         6x        6x         6x        6x

- Intro de Violin

- Riff 1

- Riff 3

|-----------------------------------------------------------------------------------|
|           ¤ø,¸¸,ø¤º°`°º¤¸ - Solo de Astaroth - ¤º°`°º¤ø,¸¸,ø¤º°`°º¤               |
|-----------------------------------------------------------------------------------|
    (4:24)
E|----------------------------------|----------|-----------------|----------|--------|
B|----------------------------------|----------|-----------------|----------|--------|
G|---6-7-7h9-7-6--------------------|--Riff-3--|-<7>~---6-7-9b~--|--Riff-3--|--------|
D|---------------7h8p7h8p7h8p7h8p7~-|----------|-----------------|----------|--------|
A|----------------------------------|----------|-----------------|----------|--------|
E|----------------------------------|----------|-----------------|----------|--------|

--------------------------------|----------|---10-9-6-9h10p9p6h9h10p9p6--------------|
------------6-8-10-8h10p8p6-5~--|----------|-----------------------------------------|
---x6-x7-x9---------------------|--Riff-3--|-----------------------------------------|
--------------------------------|----------|-----------------------------------------|
--------------------------------|----------|-----------------------------------------|
--------------------------------|----------|-----------------------------------------|

--------*****----****----***----***--*************-----------------------------------|
-----10h11p10--8h10p8--6h8p6--5h6p5—-3-5-3-2-3-2-------------------------------------|
-------------------------------------------------3-<2>~-0-2-3-2----------------------|
----------------------------------------------------------------x5-x3-x5-------------|
-------------------------------------------------------------------------------------|
-------------------------------------------------------------------------------------|

-------------------------------------------------------------------------------------|
-------------------------------------------------------------------------------------|
---------------------------------------------------2---------------------------------|
---x5-x3-x2-x0-x2-x3-x5-x3-x2-x0-x2-x3-x5-x3-x2--5---5p3p2h3-------------------------|
--------------------------------------------------------------0-[5]-\n-%-------------|
-------------------------------------------------------------------------------------|

-------------------------------------------------------------------------------------|
----[   Lo siento mucho pero todavia me faltan estos miseros cuatro segundos de  ]---|
----[   la cancion que comienzan en el minuto 4:50. Es estilo de escala que      ]---|
----[   todavia no puedo descifrar por completo pero en cuanto la descubra la    ]---|
----[   subire de inmediato (ATAMe se tarda un putero en subirla como un mes     ]---|
-------------------------------------------------------------------------------------|

---17-17-18-17-15-17b~----15-17-18-17-15---------------------------------------------|
-----------------------------------------18-17-15-14-15-17-15-14---------------------|
-----------------------------------------------------------------15-14-12-10-12-14---|
-------------------------------------------------------------------------------------|
-------------------------------------------------------------------------------------|
-------------------------------------------------------------------------------------|

-------------------------------------------------------------------------------------|
--------------------------------15-14-15-15h17-15-14h15p14h15p14h15p14-----------18~-|
---12-10--------------------/14----------------------------------------15-14-/17-----|
---------14-12-11-9-11-12------------------------------------------------------------|
-------------------------------------------------------------------------------------|
-------------------------------------------------------------------------------------|

Riff 10      (4:36) - Repetir solamente durante todo el solo
E|-----------------------------------------------------------------------------------|
B|-----------------------------------------------------------------------------------|
G|-----------------------------------------------------------------------------------|
D|---x7---x7-x7-x7---x7---x7-x7-x7---x7---x7-x7-x7-x7----8---------------------------|
A|---x7---x7-x7-x7---x7---x7-x7-x7---x7---x7-x7-x7-x7----8---------------------------|
E|---x5---x5-x5-x5---x5---x5-x5-x5---x5---x5-x5-x5-x5----6---------------------------|

-------------------------------------------------------------------------------------|
-------------------------------------------------------------------------------------|
-------------------------------------------------------------------------------------|
-----x7---x7-x7-x7---x7---x7-x7-x7---x7---x7-x7-x7-x7----5---------------------------|
-----x7---x7-x7-x7---x7---x7-x7-x7---x7---x7-x7-x7-x7----5---------------------------|
-----x5---x5-x5-x5---x5---x5-x5-x5---x5---x5-x5-x5-x5----3---------------------------|

- Riff 4

- Riff 5

- Riff 6

- Riff 7

- Riff 3

- FIN -
Comments