Magnum - Vigilante Chords & Tabs

 

Vigilante Chords & Tabs

Magnum Chords & Tabs

Version: 1 Type: Tab 0 ratings
1 star 2 stars 3 stars 4 stars 5 stars
comments

Vigilante Tab

                       Magnum / Vigilante 

                (transcribed in a hurry by mEeK)


Intro riff:
                                                                        
E||----------------------|----------------------|----------------------|
B||----------------------|----------------------|----------------------|
G||----------------------|----------------------|----------------------|
D||--3--------------2----|------------3---------|--5--------------3----|
A||-------0----0---------|--0----0---------0----|-------0----0---------|
E||----------------------|----------------------|----------------------|


                                                                     
----------------------|----------------------|----------------------|
----------------------|----------------------|----------------------|
----------------------|----------------------|----------------------|
------------5---------|--7--------------5----|------------7----5----|
--0----0---------0----|-------0----0---------|--0----0--------------|
----------------------|----------------------|----------------------|


                                                                     
----------------------|----------------------|----------------------|
----------------------|----------------------|----------------------|
----------------------|----------------------|----------------------|
--3---------3---------|--5---------5---------|--7--------------7----|
-------0---------0----|-------0---------0----|-------0----0---------|
----------------------|----------------------|----------------------|


                                                                      
----------------------|----------------------|----------------------||
----------------------|----------------------|----------------------||
----------------------|----------------------|----------------------||
------------7---------|--7--------------7----|------------7---------||
--0----0---------0----|-------0----0---------|--0----0---------0----||
----------------------|----------------------|----------------------||


Racing in the shadows, the pounding of the feet
While the old men get to praying and the children try to sleep

Just another promise, they don't really care
Cause the movement on the border's got the people running scared


Riff 1:

E||-------|-------|----------------------|----------------------|
B||-------|-------|----------------------|----------------------|
G||--2----|--x----|--5----4--------------|--4---------4----5----|
D||--2----|--x----|--5----5----x----x----|--5----x----5----5----|
A||--0----|--0----|--0----0----0----0----|--0----0----0----0----|
E||-------|-------|----------------------|----------------------|


                                                       
----------------------|----------------------|-------||
----------------------|----------------------|-------||
------------5----4----|------------4---------|--5----||
--x----x----5----5----|--x----x----5----x----|--5----||
--0----0----0----0----|--0----0----0----0----|--0----||
----------------------|----------------------|-------|| x 2 
(with keyboard playing higher chords second time)


Main riff:


Intro/main riff:

Standing on the corner, never got things done
If you leave you're front door open, you'll be the foolish one

No misunderstanding, no honour among thieves
It's a sorry situation, a gun is all you need
                                                                        
E||----------------------|----------------------|----------------------|
B||----------------------|----------------------|----------------------|
G||----------------------|----------------------|----------------------|
D||--3--------------2----|------------3---------|--5--------------3----|
A||-------0----0---------|--0----0---------0----|-------0----0---------|
E||----------------------|----------------------|----------------------|


                                                                     
----------------------|----------------------|----------------------|
----------------------|----------------------|----------------------|
----------------------|----------------------|----------------------|
------------5---------|--7--------------5----|------------7----5----|
--0----0---------0----|-------0----0---------|--0----0--------------|
----------------------|----------------------|----------------------|


                                                                     
----------------------|----------------------|----------------------|
----------------------|----------------------|----------------------|
----------------------|----------------------|----------------------|
--3---------3---------|--5---------5---------|--7--------------7----|
-------0---------0----|-------0---------0----|-------0----0---------|
----------------------|----------------------|----------------------|


                                                                      
----------------------|----------------------|----------------------||
----------------------|----------------------|----------------------||
----------------------|----------------------|----------------------||
------------7---------|--7--------------7----|------------7---------||
--0----0---------0----|-------0----0---------|--0----0---------0----||
----------------------|----------------------|----------------------||



Refrain:

I said go call the vigilante...
He'll turn this place upside down
Go call the vigilante...
He don't get kicked around

                                                                           
E||-----------------------|-----------------|----------------------|------|
B||-----------------------|-----------------|----------------------|------|
G||-----------------------|-----------------|--7----7----7----2----|------|
D||--------2----2---------|-------5----5----|--7----7----7----2----|------|
A||--12/---2----2----x----|--x----5----5----|--5----5----5---------|------|
E||--10/---0----0----0----|--0----3----3----|----------------------|------|

[ Tab from: http://www.guitartabs.cc/tabs/m/magnum/vigilante_tab.html ]
                                                                     
----------------------|----------------------|----------------------|
----------------------|----------------------|----------------------|
--5~---7~---7~---5~---|--2-------------------|-----------------7----|
--5~---7~---7~---5~---|-------2--------------|-------5----5----7----|
----------------------|------------2---------|-------5----5----5----|
----------------------|-----------------0----|--0----3----3---------|


                                                            
----------------------|----------------------|------------||
----------------------|----------------------|------------||
--7----7----2----5~---|--7~---7~---5~---5~---|--4~---x----||
--7----7----2----5~---|--7~---7~---5~---5~---|--5~---5~---||
--5----5--------------|----------------------|------------||
----------------------|----------------------|------------||




Riff 2:

Hold on, there's a new way a comin'
Looks like he's arriving tonight
There's no more hiding or running
There's no more walking on ice

                                                                               
E||---------------------|----------------------|----------------------|-------|
B||---------------------|----------------------|----------------------|-------|
G||---------------------|----------------------|----------------------|-------|
D||---------------------|----------------------|----------------------|-------|
A||-----------3---------|----------------------|----------------------|--0----|
E||------5---------5----|--3----1----0----1----|--3----3----0----3----|-------|


                                                                            
----------------------|----------------------|----------------------|------|
----------------------|----------------------|----------------------|------|
----------------------|----------------------|----------------------|------|
----------------------|----------------------|----------------------|------|
------------3---------|----------------------|-----------------0----|------|
--3----5---------5----|--3----1----0----1----|--3----0----3---------|------|


                                                                             
----------------------|----------------------|----------------------|-------|
----------------------|----------------------|----------------------|-------|
----------------------|----------------------|----------------------|-------|
----------------------|----------------------|--5----5----0----5----|--5----|
------------3---------|----------------------|--3----3----0----5----|--5----|
--3----5---------5----|--3----1----0----1----|-----------------3----|--3----|


                                                                      
----------------------|----------------------|----------------------||
----------------------|----------------------|----------------------||
----------------------|----------------------|-----------------2----||
----------------------|----------------------|--5----5----5----2----||
------------3---------|----------------------|--5----5----5----0----||
--3----5---------5----|--3----1----0----1----|--3----0----3---------||


Hold on, there's a new way a comin'
Looks like he's arriving tonight
There's no more hiding or running
There's no more walking on ice

Second guitar to riff 2:


E||-------|-------|-------|-------|-------|-------|-------|-------|-------|
B||-------|-------|-------|-------|-------|-------|-------|-------|-------|
G||--2----|-------|-------|--2----|--2----|-------|--5----|-------|--2----|
D||--2----|--3----|--5----|--2----|--2----|--3----|--5----|--5----|--2----|
A||--0----|--3----|--5----|--0----|--0----|--3----|--3----|--5----|--0----|
E||-------|--1----|--3----|-------|-------|--1----|-------|--3----|-------|


                      
-------|------------||
-------|------------||
-------|-------2----||
--3----|--5----2----||
--3----|--5----0----||
--1----|--3---------||



Riff 1:

E||-------|-------|----------------------|----------------------|
B||-------|-------|----------------------|----------------------|
G||--2----|--x----|--5----4--------------|--4---------4----5----|
D||--2----|--x----|--5----5----x----x----|--5----x----5----5----|
A||--0----|--0----|--0----0----0----0----|--0----0----0----0----|
E||-------|-------|----------------------|----------------------|


                                                       
----------------------|----------------------|-------||
----------------------|----------------------|-------||
------------5----4----|------------4---------|--5----||
--x----x----5----5----|--x----x----5----x----|--5----||
--0----0----0----0----|--0----0----0----0----|--0----||
----------------------|----------------------|-------||

Intro riff:
                                                                        
E||----------------------|----------------------|----------------------|
B||----------------------|----------------------|----------------------|
G||----------------------|----------------------|----------------------|
D||--3--------------2----|------------3---------|--5--------------3----|
A||-------0----0---------|--0----0---------0----|-------0----0---------|
E||----------------------|----------------------|----------------------|


                                                                     
----------------------|----------------------|----------------------|
----------------------|----------------------|----------------------|
----------------------|----------------------|----------------------|
------------5---------|--7--------------5----|------------7----5----|
--0----0---------0----|-------0----0---------|--0----0--------------|
----------------------|----------------------|----------------------|


                                                                     
----------------------|----------------------|----------------------|
----------------------|----------------------|----------------------|
----------------------|----------------------|----------------------|
--3---------3---------|--5---------5---------|--7--------------7----|
-------0---------0----|-------0---------0----|-------0----0---------|
----------------------|----------------------|----------------------|


                                                                      
----------------------|----------------------|----------------------||
----------------------|----------------------|----------------------||
----------------------|----------------------|----------------------||
------------7---------|--7--------------7----|------------7---------||
--0----0---------0----|-------0----0---------|--0----0---------0----||
----------------------|----------------------|----------------------||


Standing on the corner, never got things done
If you leave you're front door open, you'll be the foolish one

No misunderstanding, no honour among thieves
It's a sorry situation, a gun is all you need
Comments