Magic Dirt - These Drugs Are Really Starting To Fuck Me Over Chords & Tabs

 

These Drugs Are Really Starting To Fuck Me Over Chords & Tabs

Magic Dirt Chords & Tabs

Version: 1 Type: Bass Tab 0 ratings
1 star 2 stars 3 stars 4 stars 5 stars
comments

These Drugs Are Really Starting To Fuck Me Over Bass Tab

MAGIC DIRT                  These Drugs Are Really Starting To Fuck Me Over
Bass tab transcribed by geniefur (grrrl_grrrms@hotmail.com)

Faint Intro:
G -----------------|-----------------
D -----------------|-----------------
A -0-0-0-0-0-0-0-0-|-5-5-5-5-5-5-5-5-
E -----------------|-----------------

Intro:
G ---------------|------------------
D ---------------|------------------
A -5-5-5-3-5-3---|-0-0-3-5-7-3------
E ---------------|------------------

Verse:
where you a taxi driver..
G ---------------|--------------
D ---------------|--------------
A -5--3-3-0-3-3--|-5--3-3-0-3-5-
E ---------------|--------------
[ Tab from: http://www.guitartabs.cc/tabs/m/magic_dirt/these_drugs_are_really_starting_to_fuck_me_over_btab.html ]
top yourself off please dont do it..
G -----------------|-----------------------
D -----------------|-----------------------
A -3-3-3-3-3-3-3-3-|5-5-5-5-5-5-5-5--------
E -----------------|-----------------------

G -----------------|-----------------------
D -----------------|-----------------------
A -7-7-7-7-7-7-7-7-|-9-9-9-9-9-9-9-9-------
E -----------------|-----------------------

maffia.. cocksucker.. tosser..
G ----------------|-----------------------
D -3-5-5----------|-3-5-5-----------------
A ----------------|-----------------------
E ----------------|-----------------------

SONG FORMAT:
* the faint intro is so faint, but i think you play it three times
* intro x4
* verse x4
* intro x4
* verse x4
* intro x4
* "top yourself off" x10, but once you've played it four times play
each note once only.
* ending (maffia) part x10

Comments