Maggie Reilly - Everytime We Touch Chords & Tabs

 

Maggie Reilly Chords & Tabs

Version: 1 Type: Tab 0 ratings
1 star 2 stars 3 stars 4 stars 5 stars
comments

Everytime We Touch Tab

   
by Iloveblondgirls - you know me?

e |-----------------------------------------------------------------------|
h |-----------------------------------------------------------------10-12-|
G |-----------------------------------------------------------------------|
D |-7-6-4-2-44-2-----2-4-6-7-9-----7-6-4-2-2-4-6-9-12-12-12-14-----------|
A |---------------2-4-----------7-------------------------------12--------|
E |-----------------------------------------------------------------------|

e |--------------------------|
h |14-14-14-17-14-12-10-12-9-|
G |--------------------------|
D |--------------------------|
A |--------------------------|
E |--------------------------|


F#m        E         Hm
A shooting star fell down to earth
F#m       E           D
Lightning cracked the sky
F#m       E        Hm
Something weird is happening
F#m       E       D
Something I can't deny

Hm                 G
A strange kind of magic
A
Running through my brain
Hm           G
Feel I'm in heaven
A               C#
Or going insane

                   D       E        F#m
Cause everytime we touch I get this feeling 
                 D      E             F#m
and everytime we kiss I swear I could fly
                  D          A
Can't you feel my heart beat fast
  E            F#m
I want this to last
D              E
Need you by my side
                   D       E        F#m
Cause everytime we touch I feel the static 
                 D      E             F#m
and everytime we kiss I reach for the sky
                  D          A
Can't you hear my heart beat so
  E             F#m
I can't let you go
A              E
Want you in my life

e |---------------------2-4-5>12-9---------------|
h |--------------------------------12-10-10-12-9-|
G |----------------------------------------------|
D |-7-6-4-2-44-2-----2--------------------------|
A |---------------2-4----------------------------|
E |----------------------------------------------|
 
[ Tab from: http://www.guitartabs.cc/tabs/m/maggie_reilly/everytime_we_touch_tab.html ]
F#m      E          Hm
The wind was like a hurricane
F#m          E         D
Storm clouds filled the sky
F#m       E        Hm
I heard a crash of thunder
F#m       E        D
The earth shook in reply

Hm                G
A strange kind of magic
A
Running through my brain
Hm               G
Feel like I'm in heaven
A               C#m
Or going insane

                   D       E        F#m
Cause everytime we touch I get this feeling 
                 D      E             F#m
and everytime we kiss I swear I could fly
                  D          A
Can't you feel my heart beat fast
  E            F#m
I want this to last
D              E
Need you by my side

                   D       E        F#m
Cause everytime we touch I feel the static 
                 D      E             F#m
and everytime we kiss I reach for the sky
                  D          A
Can't you hear my heart beat so
  E             F#m
I can't let you go
A              E
Want you in my life

e |-----------------------------------------------------------------------|
h |--------------------------------------------------------------10-12-14-|
G |-----------------------------------------------------------------------|
D |-7-6-4-2-44-2-----2-4-6-7-9-----7-6-4-2-2-4-6-9-1214-12--------------|
A |---------------2-4-----------7----------------------------12-----------|
E |-----------------------------------------------------------------------|

e |------------------|
h |14-14-17-14-12-14-|
G |------------------|
D |------------------|
A |------------------|
E |------------------|
                   D       E        F#m 
Cause everytime we touch I get this feeling 
                 D      E             F#m
and everytime we kiss I swear I could fly
                  D          A
Can't you feel my heart beat fast
  E            F#m
I want this to last
D              E
Need you by my side
                   D       E        F#m
Cause everytime we touch I feel the static 
                 D      E             F#m
and everytime we kiss I reach for the sky
                  D          A
Can't you hear my heart beat so
  E             F#m
I can't let you go
A              E
Want you in my life




by Iloveblondgirls - you know me?
Comments