Mae - Tisbury Lane Chords & Tabs

 

Tisbury Lane Chords & Tabs

Mae Chords & Tabs

Version: 3 Type: Tab

Tisbury Lane Tab

++++++++++++++++++++++++++++++++
Mae - Tisbury Lane
GUitar 2 & 3 ONLY
November 16, 2005
Tabbed by meestersteph@gmail.com
++++++++++++++++++++++++++++++++
STANDARD EADGBe Tuning:

Very few people know that there's a second guitar playing in Mae's Tisbury 
Lane.  I took the time to tab out what sounds like guitar 2 in this song.  
This is my first tab, rate it please!  I know most of it is correct, the 
bridge is very questionable though, if you find a fix for it hit me up 
using my e-mail address listed above.  (Listen to the song to get the beat, 
it's kind of hard, especially since guitar 2 is REALLY silent *use 
headphones*)

Also note that there is yet ANOTHER guitar part in this song (at least i 
think there is).  It kicks in at 2:25, and it sounds almost like guitar 
one, but on a higher octave.  I tried to mimic it, and this is what I came 
up with:

Guitar 3, throughout song:

e----------------------|
B--5--5/4---5---5---7--|
G--4----4---4---4---4--|
D--6----6---6---6---6--|
A----------------------|
E----------------------|


I really don't know if that's being played by either guitar 1 or 2, but it 
sounds seperate from them.  Or it could be the organ/keyboard.  Who 
knows...
++++++++++++++++++++++++++++++++

Guitar 1 starts, rest until chorus.

Chorus (enter at 1:33):
[ Tab from: http://www.guitartabs.cc/tabs/m/mae/tisbury_lane_tab_ver_3.html ]
e------------------------------7-----------------------------------|   
B-------------5----------5---------------------4----------------7--|   
G-------2-----------2--------------------4----------------4--------|   
D--4--------------------------------6----------------4-------------|  
A------------------------------------------------------------------|    
E------------------------------------------------------------------|  


e----------------------------7-5-4---------------------------------|   
B-------------5----------5---------------------4---------------7---|   
G-------2-----------2--------------------4------------------4------|   
D--4--------------------------------6--------------------4---------| 
A------------------------------------------------------------------|    
E------------------------------------------------------------------| 


e--------------|   
B------4-------|   
G------5-------|   
D--------------| x1
A--------------|    
E--------------| 


Verse (enter at 2:25):

e------------------------------------------------------------------|
B--5--4-0-----------------------5--4--0----------------------------|
G----------------------4------------------------------4------------|
D--------6---4--2-4----------------------6--4--2--4-------6-4-2-(4)| x2
E------------------------------------------------------------------|
E------------------------------------------------------------------|

verse (3:12) x2

Chorus (3:35) x1    


Distortion turned from here on out.
(this part is played in between guitar one, 
kinda hard to explain, listen to the song.)

Bridge (enter at 4:05):

e----------------------2-----222-----------------------------------|
B---------4-5-4----5---4-----444------------------0----1----111----|
G----------------------------------------1-2-1---------2----222----|
D------------------------------------------------------------------| x4
A------------------------------------------------------------------|
E------------------------------------------------------------------|

And you're done!

++++++++++++++++++++++++++++++++
meestersteph@gmail.com